  0
SECTION
  2
HEADER
  9
$ACADVER
  1
AC1009
  9
$INSBASE
 10
0
 20
0
 30
0
  9
$EXTMIN
 10
0
 20
0
  9
$EXTMAX
 10
42000
 20
29700
  9
$LIMMIN
 10
0
 20
0
  9
$LIMMAX
 10
42000
 20
29700
  9
$LTSCALE
 40
100
  0
ENDSEC
  0
SECTION
  2
TABLES
  0
TABLE
  2
LTYPE
 70
     9
  0
LTYPE
  2
CONTINUOUS
 70
    64
  3
実線
 72
    65
 73
     0
 40
0.0
  0
LTYPE
  2
DASHED1
 70
    64
  3
--  --  --  --  --  --  --  --  
 72
    65
 73
     2
 40
2.5
 49
1.25
 49
-1.25
  0
LTYPE
  2
DASHED2
 70
    64
  3
----    ----    ----    ----    
 72
    65
 73
     2
 40
5.0
 49
2.5
 49
-2.5
  0
LTYPE
  2
DASHED3
 70
    64
  3
------  ------  ------  ------  
 72
    65
 73
     2
 40
5.0
 49
3.75
 49
-1.25
  0
LTYPE
  2
CENTER1
 70
    64
  3
----- - ----- - ----- - ----- - 
 72
    65
 73
     4
 40
10.0
 49
6.25
 49
-1.25
 49
1.25
 49
-1.25
  0
LTYPE
  2
CENTER2
 70
    64
  3
----------  --  ----------  --  
 72
    65
 73
     4
 40
20.0
 49
12.5
 49
-2.5
 49
2.5
 49
-2.5
  0
LTYPE
  2
PHANTOM1
 70
    64
  3
--- - - --- - - --- - - --- - - 
 72
    65
 73
     6
 40
10.0
 49
3.25
 49
-1.25
 49
1.25
 49
-1.25
 49
1.25
 49
-1.25
  0
LTYPE
  2
PHANTOM2
 70
    64
  3
--------  -  -  --------  -  -  
 72
    65
 73
     6
 40
20.0
 49
10.0
 49
-2.5
 49
1.25
 49
-2.5
 49
1.25
 49
-2.5
  0
LTYPE
  2
DOT
 70
    64
  3
-   -   -   -   -   -   -   -   
 72
    65
 73
     2
 40
2.5
 49
0.625
 49
-1.875
  0
LTYPE
  2
DUMMY
 70
    64
  3
ダミー
 72
    65
 73
     0
 40
0.0
  0
LTYPE
  2
RAND1
 70
    64
  3
ランダム線1
 72
    65
 73
     4
 40
10.0
 49
1.0
 49
-2.0
 49
3.0
 49
-4.0
  0
LTYPE
  2
RAND2
 70
    64
  3
ランダム線2
 72
    65
 73
     4
 40
14.0
 49
2.0
 49
-3.0
 49
4.0
 49
-5.0
  0
LTYPE
  2
RAND3
 70
    64
  3
ランダム線3
 72
    65
 73
     4
 40
18.0
 49
3.0
 49
-4.0
 49
5.0
 49
-6.0
  0
LTYPE
  2
RAND4
 70
    64
  3
ランダム線4
 72
    65
 73
     4
 40
22.0
 49
4.0
 49
-5.0
 49
6.0
 49
-7.0
  0
LTYPE
  2
RAND5
 70
    64
  3
ランダム線5
 72
    65
 73
     4
 40
26.0
 49
5.0
 49
-6.0
 49
7.0
 49
-8.0
  0
LTYPE
  2
LONG1
 70
    64
  3
----------  --  ----------  --  
 72
    65
 73
     4
 40
40.0
 49
32.5
 49
-2.5
 49
2.5
 49
-2.5
  0
LTYPE
  2
LONG2
 70
    64
  3
--------  -  -  --------  -  -  
 72
    65
 73
     6
 40
40.0
 49
30.0
 49
-2.5
 49
1.25
 49
-2.5
 49
1.25
 49
-2.5
  0
LTYPE
  2
LONG3
 70
    64
  3
+++++++++++++++..+++++++++++++++
 72
    65
 73
     2
 40
40.0
 49
37.5
 49
-2.5
  0
LTYPE
  2
LONG4
 70
    64
  3
+++++++++++++++..+++++++++++++++
 72
    65
 73
     2
 40
80.0
 49
75.0
 49
-5.0
  0
LTYPE
  2
LONG5
 70
    64
  3
----------  --  ----------  --  
 72
    65
 73
     4
 40
60.0
 49
37.5
 49
-7.5
 49
7.5
 49
-7.5
  0
LTYPE
  2
dashed
 70
   64
  3
-------   -------------   ------
 72
   65
 73
    2
 40
7.5
 49
6
 49
-1.5
  0
LTYPE
  2
dashed_spaced
 70
   64
  3
----        --------        ----
 72
   65
 73
    2
 40
12
 49
6
 49
-6
  0
LTYPE
  2
long_dashed_dotted
 70
   64
  3
------------- --- --------------
 72
   65
 73
    4
 40
15.25
 49
12
 49
-1.5
 49
0.25
 49
-1.5
  0
LTYPE
  2
long_dashed_double-dotted
 70
   64
  3
----------- --- --- ------------
 72
   65
 73
    6
 40
17
 49
12
 49
-1.5
 49
0.25
 49
-1.5
 49
0.25
 49
-1.5
  0
LTYPE
  2
long_dashed_triplicate-dotted
 70
   64
  3
--------- --- --- --- ----------
 72
   65
 73
    8
 40
18.75
 49
12
 49
-1.5
 49
0.25
 49
-1.5
 49
0.25
 49
-1.5
 49
0.25
 49
-1.5
  0
LTYPE
  2
dotted
 70
   64
  3
   -       -       -       -    
 72
   65
 73
    2
 40
1.75
 49
0.25
 49
-1.5
  0
LTYPE
  2
chain
 70
   64
  3
-------------- -- --------------
 72
   65
 73
    4
 40
18.5
 49
12
 49
-1.5
 49
3.5
 49
-1.5
  0
LTYPE
  2
chain_double_dash
 70
   64
  3
------------ -- -- -------------
 72
   65
 73
    6
 40
23.5
 49
12
 49
-1.5
 49
3.5
 49
-1.5
 49
3.5
 49
-1.5
  0
LTYPE
  2
dashed_dotted
 70
   64
  3
-----------     -     ----------
 72
   65
 73
    4
 40
9.25
 49
6
 49
-1.5
 49
0.25
 49
-1.5
  0
LTYPE
  2
double-dashed_dotted
 70
   64
  3
------   -----------   -   -----
 72
   65
 73
    6
 40
16.75
 49
6
 49
-1.5
 49
6
 49
-1.5
 49
0.25
 49
-1.5
  0
LTYPE
  2
dashed_double-dotted
 70
   64
  3
---------    -    -    ---------
 72
   65
 73
    6
 40
11
 49
6
 49
-1.5
 49
0.25
 49
-1.5
 49
0.25
 49
-1.5
  0
LTYPE
  2
double-dashed_double-dotted
 70
   64
  3
-----   ---------   -   -   ----
 72
   65
 73
    8
 40
18.5
 49
6
 49
-1.5
 49
6
 49
-1.5
 49
0.25
 49
-1.5
 49
0.25
 49
-1.5
  0
LTYPE
  2
dashed_triplicate-dotted
 70
   64
  3
-------    -    -    -    ------
 72
   65
 73
    8
 40
12.75
 49
6
 49
-1.5
 49
0.25
 49
-1.5
 49
0.25
 49
-1.5
 49
0.25
 49
-1.5
  0
LTYPE
  2
double-dashed_triplicate-dotted
 70
   64
  3
-----  ---------  -  -  -  -----
 72
   65
 73
   10
 40
20.25
 49
6
 49
-1.5
 49
6
 49
-1.5
 49
0.25
 49
-1.5
 49
0.25
 49
-1.5
 49
0.25
 49
-1.5
  0
LTYPE
  2
undefined
 70
   64
  3
--------------------------------
 72
   65
 73
    0
 40
0
  0
ENDTAB
  0
TABLE
  2
STYLE
  5
3
100
AcDbSymbolTable
 70
     1
  0
STYLE
  5
10
100
AcDbSymbolTableRecord
100
AcDbTextStyleTableRecord
  2
STANDARD
 70
     0
 40
0.0
 41
1.0
 50
0.0
 71
     0
 42
0.2
  3
txt
  4
bigfont.shx
  0
STYLE
  5
26
100
AcDbSymbolTableRecord
100
AcDbTextStyleTableRecord
  2
TATEGAKI
 70
    68
 40
0.0
 41
1.0
 50
0.0
 71
     0
 42
1.0
  3
txt
  4
bigfont.shx
  0
ENDTAB
  0
TABLE
  2
LAYER
 70
    8
  0
LAYER
  2
_0-0_LAY0_0
 70
   64
 62
    7
  6
CONTINUOUS
  0
LAYER
  2
_0-1_LAY0_1
 70
   64
 62
    7
  6
CONTINUOUS
  0
LAYER
  2
_0-2_LAY0_2
 70
   64
 62
    7
  6
CONTINUOUS
  0
LAYER
  2
_0-3_LAY0_3
 70
   64
 62
    7
  6
CONTINUOUS
  0
LAYER
  2
_0-4_LAY0_4
 70
   64
 62
    7
  6
CONTINUOUS
  0
LAYER
  2
_0-5_LAY0_5
 70
   64
 62
    7
  6
CONTINUOUS
  0
LAYER
  2
_0-6_LAY0_6
 70
   64
 62
    7
  6
CONTINUOUS
  0
LAYER
  2
ADD_LINE
 70
   64
 62
    7
  6
CONTINUOUS
  0
ENDTAB
  0
ENDSEC
  0
SECTION
  2
BLOCKS
  0
ENDSEC
  0
SECTION
  2
ENTITIES
  0
LINE
  8
_0-5_LAY0_5
  6
DASHED1
 62
    7
 10
26430.82902238176
 20
25135.491448479734
 11
24285.35255225929
 21
23335.223223711993
  0
LINE
  8
_0-6_LAY0_6
  6
DASHED1
 62
    7
 10
28786.40664590372
 20
13004.256789748735
 11
28786.40664590372
 21
15804.974942593961
  0
LINE
  8
_0-6_LAY0_6
  6
DASHED1
 62
    7
 10
26640.93017578125
 20
13579.138678473395
 11
28786.40664590372
 21
13004.256789748735
  0
LINE
  8
_0-6_LAY0_6
  6
DASHED1
 62
    7
 10
28786.40664590372
 20
15804.974942593961
 11
30931.880641627959
 21
17605.243167361699
  0
LINE
  8
_0-6_LAY0_6
  6
DASHED1
 62
    7
 10
28226.596316775762
 20
15529.401212125211
 11
28226.596316775762
 21
18330.124313766893
  0
LINE
  8
_0-6_LAY0_6
  6
CONTINUOUS
 62
    7
 10
33637.16744087838
 20
19681.076462204393
 11
33637.16744087838
 21
14079.645105310388
  0
LINE
  8
_0-6_LAY0_6
  6
CONTINUOUS
 62
    7
 10
31491.693445154142
 20
17880.810711834882
 11
33637.16744087838
 21
19681.076462204393
  0
LINE
  8
_0-6_LAY0_6
  6
CONTINUOUS
 62
    7
 10
28786.40664590372
 20
18605.691858240079
 11
31491.693445154142
 21
17880.810711834882
  0
LINE
  8
_0-6_LAY0_6
  6
CONTINUOUS
 62
    7
 10
26081.12232105152
 20
16529.854851800046
 11
31491.693445154142
 21
15080.096270586995
  0
LINE
  8
_0-6_LAY0_6
  6
DASHED1
 62
    7
 10
28226.596316775762
 20
15529.401212125211
 11
33637.16744087838
 21
14079.645105310388
  0
LINE
  8
_0-6_LAY0_6
  6
DASHED1
 62
    7
 10
30931.880641627959
 20
17605.243167361699
 11
30931.880641627959
 21
20405.957608609588
  0
LINE
  8
_0-6_LAY0_6
  6
DASHED1
 62
    7
 10
28786.40664590372
 20
13004.256789748735
 11
26640.932650179479
 21
11203.989802180111
  0
LINE
  8
_0-6_LAY0_6
  6
CONTINUOUS
 62
    7
 10
26640.93017578125
 20
14004.709192224451
 11
29346.2194494299
 21
13279.828045819258
  0
LINE
  8
_0-6_LAY0_6
  6
CONTINUOUS
 62
    7
 10
31491.693445154142
 20
15080.096270586995
 11
29346.2194494299
 21
13279.828045819258
  0
LINE
  8
_0-6_LAY0_6
  6
CONTINUOUS
 62
    7
 10
29346.2194494299
 20
10479.111130173142
 11
29346.2194494299
 21
13279.828045819258
  0
LINE
  8
_0-6_LAY0_6
  6
CONTINUOUS
 62
    7
 10
33637.16744087838
 20
14079.645105310388
 11
29346.2194494299
 21
10479.111130173142
  0
LINE
  8
_0-6_LAY0_6
  6
CONTINUOUS
 62
    7
 10
26640.932650179479
 20
11203.989802180111
 11
29346.2194494299
 21
10479.111130173142
  0
LINE
  8
_0-6_LAY0_6
  6
CONTINUOUS
 62
    7
 10
31491.693445154142
 20
17880.810711834882
 11
31491.693445154142
 21
15080.096270586995
  0
LINE
  8
_0-6_LAY0_6
  6
CONTINUOUS
 62
    7
 10
28786.40664590372
 20
18605.691858240079
 11
28786.40664590372
 21
15804.974942593961
  0
LINE
  8
_0-6_LAY0_6
  6
CONTINUOUS
 62
    7
 10
30931.880641627959
 20
20405.957608609588
 11
33637.16744087838
 21
19681.076462204393
  0
LINE
  8
_0-6_LAY0_6
  6
CONTINUOUS
 62
    7
 10
30931.880641627959
 20
20405.957608609588
 11
28786.40664590372
 21
18605.691858240079
  0
LINE
  8
_0-6_LAY0_6
  6
CONTINUOUS
 62
    7
 10
28786.40664590372
 20
15804.974942593961
 11
26640.93017578125
 21
14004.709192224451
  0
LINE
  8
_0-6_LAY0_6
  6
CONTINUOUS
 62
    7
 10
26640.93017578125
 20
14004.709192224451
 11
26640.93017578125
 21
11203.991039379223
  0
LINE
  8
_0-6_LAY0_6
  6
CONTINUOUS
 62
    7
 10
26081.12232105152
 20
16529.854851800046
 11
26081.12232105152
 21
13729.137936153928
  0
LINE
  8
_0-6_LAY0_6
  6
CONTINUOUS
 62
    7
 10
26640.93017578125
 20
13579.138678473395
 11
26081.12232105152
 21
13729.137936153928
  0
LINE
  8
_0-6_LAY0_6
  6
DASHED1
 62
    7
 10
30931.880641627959
 20
17605.243167361699
 11
28786.40664590372
 21
18180.12134448902
  0
LINE
  8
_0-6_LAY0_6
  6
DASHED1
 62
    7
 10
28226.596316775762
 20
15529.403686523438
 11
26081.12232105152
 21
13729.137936153928
  0
LINE
  8
_0-6_LAY0_6
  6
CONTINUOUS
 62
    7
 10
26081.12232105152
 20
16529.854851800046
 11
28226.596316775762
 21
18330.124313766893
  0
LINE
  8
_0-6_LAY0_6
  6
CONTINUOUS
 62
    7
 10
28226.596316775762
 20
18330.124313766893
 11
28786.40664590372
 21
18180.12134448902
  0
LINE
  8
_0-5_LAY0_5
  6
DASHED1
 62
    7
 10
26430.82902238176
 20
25135.491448479734
 11
26990.639351509715
 21
24985.490953600085
  0
LINE
  8
_0-5_LAY0_5
  6
DASHED1
 62
    7
 10
26430.82902238176
 20
25135.491448479734
 11
26430.831496779985
 21
22334.774532833617
  0
LINE
  8
_0-5_LAY0_5
  6
CONTINUOUS
 62
    7
 10
29136.113347233953
 20
24410.61153927365
 11
29136.113347233953
 21
21609.897098025762
  0
LINE
  8
_0-5_LAY0_5
  6
CONTINUOUS
 62
    7
 10
22139.88103093328
 20
21534.95994774071
 11
24845.167830183702
 21
20810.08003853463
  0
LINE
  8
_0-5_LAY0_5
  6
CONTINUOUS
 62
    7
 10
26990.639351509715
 20
22610.345788904142
 11
26990.639351509715
 21
25411.062704550255
  0
LINE
  8
_0-5_LAY0_5
  6
CONTINUOUS
 62
    7
 10
24845.167830183702
 20
23610.796954180743
 11
26990.639351509715
 21
25411.062704550255
  0
LINE
  8
_0-5_LAY0_5
  6
CONTINUOUS
 62
    7
 10
22139.88103093328
 20
24335.674388988598
 11
24845.167830183702
 21
23610.796954180743
  0
LINE
  8
_0-5_LAY0_5
  6
DASHED1
 62
    7
 10
24285.355026657518
 20
23335.223223711993
 11
24285.355026657518
 21
26135.94013935811
  0
LINE
  8
_0-5_LAY0_5
  6
DASHED1
 62
    7
 10
26430.831496779985
 20
22334.774532833617
 11
19994.409509607267
 21
16933.97480732686
  0
LINE
  8
_0-5_LAY0_5
  6
CONTINUOUS
 62
    7
 10
19994.405798009924
 20
19734.692960172088
 11
22699.69383445946
 21
19009.814288165118
  0
LINE
  8
_0-5_LAY0_5
  6
CONTINUOUS
 62
    7
 10
24845.167830183702
 20
20810.08003853463
 11
22699.69383445946
 21
19009.814288165118
  0
LINE
  8
_0-5_LAY0_5
  6
CONTINUOUS
 62
    7
 10
22699.69383445946
 20
16209.097372519005
 11
22699.69383445946
 21
19009.814288165118
  0
LINE
  8
_0-5_LAY0_5
  6
CONTINUOUS
 62
    7
 10
29136.113347233953
 20
21609.897098025762
 11
22699.69383445946
 21
16209.097372519005
  0
LINE
  8
_0-5_LAY0_5
  6
CONTINUOUS
 62
    7
 10
19994.409509607267
 20
16933.97480732686
 11
22699.69383445946
 21
16209.097372519005
  0
LINE
  8
_0-5_LAY0_5
  6
CONTINUOUS
 62
    7
 10
24845.167830183702
 20
23610.796954180743
 11
24845.167830183702
 21
20810.08003853463
  0
LINE
  8
_0-5_LAY0_5
  6
CONTINUOUS
 62
    7
 10
22139.88103093328
 20
24335.674388988598
 11
22139.88103093328
 21
21534.95994774071
  0
LINE
  8
_0-5_LAY0_5
  6
CONTINUOUS
 62
    7
 10
24285.355026657518
 20
26135.94013935811
 11
26990.639351509715
 21
25411.062704550255
  0
LINE
  8
_0-5_LAY0_5
  6
CONTINUOUS
 62
    7
 10
24285.355026657518
 20
26135.94013935811
 11
22139.88103093328
 21
24335.674388988598
  0
LINE
  8
_0-5_LAY0_5
  6
CONTINUOUS
 62
    7
 10
22139.88103093328
 20
21534.957473342485
 11
19994.405798009924
 21
19734.692960172088
  0
LINE
  8
_0-5_LAY0_5
  6
CONTINUOUS
 62
    7
 10
19994.405798009924
 20
19734.692960172088
 11
19994.405798009924
 21
16933.97480732686
  0
LINE
  8
_0-5_LAY0_5
  6
DASHED1
 62
    7
 10
26990.639351509715
 20
22610.345788904142
 11
24285.355026657518
 21
23335.223223711993
  0
LINE
  8
_0-5_LAY0_5
  6
DASHED1
 62
    7
 10
26430.831496779985
 20
22334.774532833617
 11
29136.113347233953
 21
21609.897098025762
  0
LINE
  8
_0-5_LAY0_5
  6
CONTINUOUS
 62
    7
 10
26990.639351509715
 20
24985.490953600085
 11
29136.113347233953
 21
24410.61153927365
  0
LINE
  8
_0-5_LAY0_5
  6
CONTINUOUS
 62
    7
 10
29136.113347233953
 20
24410.61153927365
 11
26990.639351509715
 21
22610.345788904142
  0
LINE
  8
_0-4_LAY0_4
  6
CONTINUOUS
 62
    7
 10
34758.779989706505
 20
8746.6271890176322
 11
34758.782464104726
 21
5945.9108919710725
  0
LINE
  8
_0-4_LAY0_4
  6
CONTINUOUS
 62
    7
 10
29908.019194731845
 20
7671.2407292546459
 11
24497.455493823905
 21
9120.9980732685817
  0
LINE
  8
_0-4_LAY0_4
  6
DASHED1
 62
    7
 10
24497.450545027452
 20
6320.2774460251276
 11
29908.019194731845
 21
4870.5216485100837
  0
LINE
  8
_0-4_LAY0_4
  6
DASHED1
 62
    7
 10
32053.498139252537
 20
6670.78956397804
 11
34758.782464104726
 21
5945.9108919710725
  0
LINE
  8
_0-4_LAY0_4
  6
DASHED1
 62
    7
 10
29908.019194731845
 20
7671.2407292546459
 11
29908.019194731845
 21
4870.5216485100837
  0
LINE
  8
_0-4_LAY0_4
  6
DASHED1
 62
    7
 10
32053.498139252537
 20
9471.5077168232692
 11
32053.498139252537
 21
6670.7883267789275
  0
LINE
  8
_0-4_LAY0_4
  6
DASHED1
 62
    7
 10
29908.019194731845
 20
4870.5216485100837
 11
32053.498139252537
 21
6670.78956397804
  0
LINE
  8
_0-4_LAY0_4
  6
CONTINUOUS
 62
    7
 10
22351.97654930321
 20
7320.729848500845
 11
30467.83447265625
 21
5146.0938324799417
  0
LINE
  8
_0-4_LAY0_4
  6
CONTINUOUS
 62
    7
 10
30467.83447265625
 20
5146.0975440772818
 11
30467.83447265625
 21
2345.3773807834937
  0
LINE
  8
_0-4_LAY0_4
  6
CONTINUOUS
 62
    7
 10
34758.782464104726
 20
5945.9108919710725
 11
30467.83447265625
 21
2345.3773807834937
  0
LINE
  8
_0-4_LAY0_4
  6
CONTINUOUS
 62
    7
 10
22351.979023701439
 20
4520.0120049553962
 11
30467.83447265625
 21
2345.3773807834937
  0
LINE
  8
_0-4_LAY0_4
  6
DASHED1
 62
    7
 10
24497.453019425677
 20
6320.2780646246838
 11
24497.455493823905
 21
9120.9980732685817
  0
LINE
  8
_0-4_LAY0_4
  6
CONTINUOUS
 62
    7
 10
22351.97654930321
 20
7320.729848500845
 11
24497.455493823905
 21
9120.9980732685817
  0
LINE
  8
_0-4_LAY0_4
  6
CONTINUOUS
 62
    7
 10
22351.979023701439
 20
4520.0120049553962
 11
22351.979023701439
 21
7320.729848500845
  0
LINE
  8
_0-4_LAY0_4
  6
DASHED1
 62
    7
 10
24497.450545027452
 20
6320.2774460251276
 11
22351.979023701439
 21
4520.0126235549515
  0
LINE
  8
_0-4_LAY0_4
  6
CONTINUOUS
 62
    7
 10
30467.83447265625
 20
5146.0975440772818
 11
34758.779989706505
 21
8746.6271890176322
  0
LINE
  8
_0-4_LAY0_4
  6
CONTINUOUS
 62
    7
 10
32053.498139252537
 20
9471.5077168232692
 11
34758.779989706505
 21
8746.6271890176322
  0
LINE
  8
_0-4_LAY0_4
  6
CONTINUOUS
 62
    7
 10
29908.019194731845
 20
7671.2407292546459
 11
32053.498139252537
 21
9471.5077168232692
  0
LINE
  8
_0-3_LAY0_3
  6
DASHED1
 62
    7
 10
15271.761920001058
 20
8754.6918714368676
 11
15271.765631598395
 21
11555.411261481207
  0
LINE
  8
_0-3_LAY0_3
  6
CONTINUOUS
 62
    7
 10
22827.80827702703
 20
14706.634109084673
 11
22827.80827702703
 21
9105.2033707902247
  0
LINE
  8
_0-3_LAY0_3
  6
CONTINUOUS
 62
    7
 10
20682.334281302788
 20
12906.369595914273
 11
22827.80827702703
 21
14706.634109084673
  0
LINE
  8
_0-3_LAY0_3
  6
CONTINUOUS
 62
    7
 10
17977.048719251477
 20
13631.249505120355
 11
20682.334281302788
 21
12906.369595914273
  0
LINE
  8
_0-3_LAY0_3
  6
CONTINUOUS
 62
    7
 10
20682.334281302788
 20
10105.653298867715
 11
15271.765631598395
 21
11555.411261481207
  0
LINE
  8
_0-3_LAY0_3
  6
DASHED1
 62
    7
 10
17977.048719251477
 20
8029.8144366290117
 11
15271.761920001058
 21
8754.6918714368676
  0
LINE
  8
_0-3_LAY0_3
  6
DASHED1
 62
    7
 10
20122.525189373944
 20
9830.0820427971921
 11
22827.80827702703
 21
9105.2033707902247
  0
LINE
  8
_0-3_LAY0_3
  6
DASHED1
 62
    7
 10
17977.048719251477
 20
10830.532589474242
 11
17977.048719251477
 21
8029.8144366290117
  0
LINE
  8
_0-3_LAY0_3
  6
DASHED1
 62
    7
 10
20122.523952174834
 20
15431.515255489865
 11
20122.523952174834
 21
9830.081424197635
  0
LINE
  8
_0-3_LAY0_3
  6
DASHED1
 62
    7
 10
17977.048719251477
 20
8029.8144366290117
 11
20122.525189373944
 21
9830.0820427971921
  0
LINE
  8
_0-3_LAY0_3
  6
CONTINUOUS
 62
    7
 10
15271.765631598395
 20
11555.411261481207
 11
13126.28916147593
 21
9755.1436553130279
  0
LINE
  8
_0-3_LAY0_3
  6
CONTINUOUS
 62
    7
 10
13126.28916147593
 20
6954.4267396669129
 11
13126.28916147593
 21
9755.1436553130279
  0
LINE
  8
_0-3_LAY0_3
  6
DASHED1
 62
    7
 10
15271.761920001058
 20
8754.6918714368676
 11
13126.28916147593
 21
6954.4267396669129
  0
LINE
  8
_0-3_LAY0_3
  6
CONTINUOUS
 62
    7
 10
13126.28916147593
 20
9755.1436553130279
 11
18536.86028557855
 21
8305.386311299093
  0
LINE
  8
_0-3_LAY0_3
  6
CONTINUOUS
 62
    7
 10
20682.334281302788
 20
10105.653298867715
 11
18536.86028557855
 21
8305.386311299093
  0
LINE
  8
_0-3_LAY0_3
  6
CONTINUOUS
 62
    7
 10
18536.86028557855
 20
5504.6693956529762
 11
18536.86028557855
 21
8305.386311299093
  0
LINE
  8
_0-3_LAY0_3
  6
CONTINUOUS
 62
    7
 10
22827.80827702703
 20
9105.2033707902247
 11
18536.86028557855
 21
5504.6693956529762
  0
LINE
  8
_0-3_LAY0_3
  6
CONTINUOUS
 62
    7
 10
13126.28916147593
 20
6954.4267396669129
 11
18536.86028557855
 21
5504.6693956529762
  0
LINE
  8
_0-3_LAY0_3
  6
CONTINUOUS
 62
    7
 10
20682.334281302788
 20
12906.369595914273
 11
20682.334281302788
 21
10105.653298867715
  0
LINE
  8
_0-3_LAY0_3
  6
CONTINUOUS
 62
    7
 10
17977.048719251477
 20
13631.249505120355
 11
17977.048719251477
 21
10830.532589474242
  0
LINE
  8
_0-3_LAY0_3
  6
CONTINUOUS
 62
    7
 10
20122.523952174834
 20
15431.515255489865
 11
22827.80827702703
 21
14706.634109084673
  0
LINE
  8
_0-3_LAY0_3
  6
CONTINUOUS
 62
    7
 10
20122.523952174834
 20
15431.515255489865
 11
17977.048719251477
 21
13631.249505120355
  0
LINE
  8
_0-2_LAY0_2
  6
CONTINUOUS
 62
    7
 10
18509.734695022173
 20
21836.829108160895
 11
18509.734695022173
 21
16235.397751266893
  0
LINE
  8
_0-2_LAY0_2
  6
CONTINUOUS
 62
    7
 10
16364.260699297933
 20
20036.565832189612
 11
18509.734695022173
 21
21836.829108160895
  0
LINE
  8
_0-2_LAY0_2
  6
CONTINUOUS
 62
    7
 10
13658.975137246622
 20
20761.443266997467
 11
16364.260699297933
 21
20036.565832189612
  0
LINE
  8
_0-2_LAY0_2
  6
CONTINUOUS
 62
    7
 10
13658.975137246622
 20
17960.72635135135
 11
16364.260699297933
 21
17235.848916543498
  0
LINE
  8
_0-2_LAY0_2
  6
DASHED1
 62
    7
 10
15804.449132970862
 20
16960.275186074748
 11
18509.734695022173
 21
16235.397751266893
  0
LINE
  8
_0-2_LAY0_2
  6
DASHED1
 62
    7
 10
15804.449132970862
 20
22561.711491765203
 11
15804.449132970862
 21
16960.275186074748
  0
LINE
  8
_0-2_LAY0_2
  6
DASHED1
 62
    7
 10
11513.501141522383
 20
13359.7412109375
 11
15804.449132970862
 21
16960.275186074748
  0
LINE
  8
_0-2_LAY0_2
  6
CONTINUOUS
 62
    7
 10
11513.501141522383
 20
16160.461838180956
 11
14218.786703573693
 21
15435.58069177576
  0
LINE
  8
_0-2_LAY0_2
  6
CONTINUOUS
 62
    7
 10
16364.260699297933
 20
17235.848916543498
 11
14218.786703573693
 21
15435.58069177576
  0
LINE
  8
_0-2_LAY0_2
  6
CONTINUOUS
 62
    7
 10
14218.786703573693
 20
12634.863776129645
 11
14218.786703573693
 21
15435.58069177576
  0
LINE
  8
_0-2_LAY0_2
  6
CONTINUOUS
 62
    7
 10
18509.734695022173
 20
16235.397751266893
 11
14218.786703573693
 21
12634.863776129645
  0
LINE
  8
_0-2_LAY0_2
  6
CONTINUOUS
 62
    7
 10
11513.501141522383
 20
13359.7412109375
 11
14218.786703573693
 21
12634.863776129645
  0
LINE
  8
_0-2_LAY0_2
  6
CONTINUOUS
 62
    7
 10
16364.260699297933
 20
20036.565832189612
 11
16364.260699297933
 21
17235.848916543498
  0
LINE
  8
_0-2_LAY0_2
  6
CONTINUOUS
 62
    7
 10
13658.975137246622
 20
20761.443266997467
 11
13658.975137246622
 21
17960.72635135135
  0
LINE
  8
_0-2_LAY0_2
  6
CONTINUOUS
 62
    7
 10
15804.449132970862
 20
22561.711491765203
 11
18509.734695022173
 21
21836.829108160895
  0
LINE
  8
_0-2_LAY0_2
  6
CONTINUOUS
 62
    7
 10
15804.449132970862
 20
22561.711491765203
 11
13658.975137246622
 21
20761.443266997467
  0
LINE
  8
_0-2_LAY0_2
  6
CONTINUOUS
 62
    7
 10
13658.975137246622
 20
17960.72635135135
 11
11513.501141522383
 21
16160.461838180956
  0
LINE
  8
_0-2_LAY0_2
  6
CONTINUOUS
 62
    7
 10
11513.501141522383
 20
16160.461838180956
 11
11513.501141522383
 21
13359.743685335727
  0
LINE
  8
_0-1_LAY0_1
  6
DASHED1
 62
    7
 10
11945.533546241555
 20
20348.666629275762
 11
11945.533546241555
 21
20774.235905827703
  0
LINE
  8
_0-1_LAY0_1
  6
DASHED1
 62
    7
 10
7094.774607065563
 20
22073.995229360222
 11
7094.773988466005
 21
19273.27583931588
  0
LINE
  8
_0-1_LAY0_1
  6
CONTINUOUS
 62
    7
 10
9800.0576947186437
 20
21349.115320154142
 11
12505.34387536951
 21
20624.236648147173
  0
LINE
  8
_0-1_LAY0_1
  6
DASHED1
 62
    7
 10
6534.9661337362759
 20
21798.421498891472
 11
4389.4912101127002
 21
19998.153274123735
  0
LINE
  8
_0-1_LAY0_1
  6
CONTINUOUS
 62
    7
 10
4389.4912101127002
 20
19998.153274123735
 11
4949.2996834419873
 21
19848.154016443204
  0
LINE
  8
_0-1_LAY0_1
  6
DASHED1
 62
    7
 10
9800.0589319177579
 20
18548.398404508025
 11
12505.34387536951
 21
17823.519732501056
  0
LINE
  8
_0-1_LAY0_1
  6
CONTINUOUS
 62
    7
 10
4389.4912101127002
 20
19998.153274123735
 11
4389.4912101127002
 21
22798.872664168077
  0
LINE
  8
_0-1_LAY0_1
  6
CONTINUOUS
 62
    7
 10
6534.9661337362759
 20
24599.138414537585
 11
4389.4912101127002
 21
22798.872664168077
  0
LINE
  8
_0-1_LAY0_1
  6
DASHED1
 62
    7
 10
6534.9661337362759
 20
21798.421498891472
 11
11945.533546241555
 21
20348.666629275762
  0
LINE
  8
_0-1_LAY0_1
  6
CONTINUOUS
 62
    7
 10
6534.9661337362759
 20
24599.138414537585
 11
11945.533546241555
 21
23149.383544921875
  0
LINE
  8
_0-1_LAY0_1
  6
CONTINUOUS
 62
    7
 10
11945.533546241555
 20
23149.383544921875
 11
9800.0576947186437
 21
21349.115320154142
  0
LINE
  8
_0-1_LAY0_1
  6
DASHED1
 62
    7
 10
9800.0589319177579
 20
21349.115320154142
 11
9800.0589319177579
 21
18548.398404508025
  0
LINE
  8
_0-1_LAY0_1
  6
CONTINUOUS
 62
    7
 10
11945.533546241555
 20
20774.235905827703
 11
11945.533546241555
 21
23149.383544921875
  0
LINE
  8
_0-1_LAY0_1
  6
DASHED1
 62
    7
 10
9800.0589319177579
 20
18548.398404508025
 11
11945.533546241555
 21
20348.662917678423
  0
LINE
  8
_0-1_LAY0_1
  6
CONTINUOUS
 62
    7
 10
7094.774607065563
 20
22073.995229360222
 11
4389.4912101127002
 21
22798.872664168077
  0
LINE
  8
_0-1_LAY0_1
  6
CONTINUOUS
 62
    7
 10
7094.774607065563
 20
22073.995229360222
 11
4949.2996834419873
 21
20273.727004592485
  0
LINE
  8
_0-1_LAY0_1
  6
CONTINUOUS
 62
    7
 10
4949.2996834419873
 20
17473.010088946368
 11
4949.2996834419873
 21
20273.727004592485
  0
LINE
  8
_0-1_LAY0_1
  6
DASHED1
 62
    7
 10
7094.773988466005
 20
19273.27583931588
 11
4949.2996834419873
 21
17473.010088946368
  0
LINE
  8
_0-1_LAY0_1
  6
CONTINUOUS
 62
    7
 10
4949.2996834419873
 20
20273.727004592485
 11
10359.869261045715
 21
18823.968423379436
  0
LINE
  8
_0-1_LAY0_1
  6
CONTINUOUS
 62
    7
 10
12505.34387536951
 20
20624.236648147173
 11
10359.869261045715
 21
18823.968423379436
  0
LINE
  8
_0-1_LAY0_1
  6
CONTINUOUS
 62
    7
 10
12505.34387536951
 20
17823.519732501056
 11
12505.34387536951
 21
20624.236648147173
  0
LINE
  8
_0-1_LAY0_1
  6
CONTINUOUS
 62
    7
 10
10359.869261045715
 20
16023.251507733321
 11
10359.869261045715
 21
18823.968423379436
  0
LINE
  8
_0-1_LAY0_1
  6
DASHED1
 62
    7
 10
7094.773988466005
 20
19273.27583931588
 11
4949.2996834419873
 21
19848.154016443204
  0
LINE
  8
_0-1_LAY0_1
  6
CONTINUOUS
 62
    7
 10
10359.869261045715
 20
16023.251507733321
 11
12505.34387536951
 21
17823.519732501056
  0
LINE
  8
_0-1_LAY0_1
  6
CONTINUOUS
 62
    7
 10
4949.2996834419873
 20
17473.010088946368
 11
10359.869261045715
 21
16023.251507733321
  0
LINE
  8
_0-1_LAY0_1
  6
DASHED1
 62
    7
 10
6534.9661337362759
 20
21798.421498891472
 11
6534.9661337362759
 21
24599.138414537585
  0
LINE
  8
_0-1_LAY0_1
  6
CONTINUOUS
 62
    7
 10
11945.533546241555
 20
20348.662917678423
 11
11945.533546241555
 21
20348.666629275762
  0
LINE
  8
_0-0_LAY0_0
  6
CONTINUOUS
 62
    7
 10
10607.480435758025
 20
14502.313149941934
 11
7902.1954923062713
 21
15227.19429634713
  0
LINE
  8
_0-0_LAY0_0
  6
CONTINUOUS
 62
    7
 10
7902.1954923062713
 20
15227.19429634713
 11
5756.7214965820312
 21
13426.926071579393
  0
LINE
  8
_0-0_LAY0_0
  6
CONTINUOUS
 62
    7
 10
10607.480435758025
 20
14502.313149941934
 11
8462.005821434228
 21
12702.047399572424
  0
LINE
  8
_0-0_LAY0_0
  6
CONTINUOUS
 62
    7
 10
10607.480435758025
 20
8900.8768442514775
 11
10607.480435758025
 21
8900.8780814505917
  0
LINE
  8
_0-0_LAY0_0
  6
CONTINUOUS
 62
    7
 10
3611.2456450591226
 20
6025.2221597207563
 11
9021.8167691617418
 21
4575.4645064070419
  0
LINE
  8
_0-0_LAY0_0
  6
CONTINUOUS
 62
    7
 10
9021.8167691617418
 20
4575.4645064070419
 11
11167.29076488598
 21
6375.7318032754438
  0
LINE
  8
_0-0_LAY0_0
  6
CONTINUOUS
 62
    7
 10
9021.8167691617418
 20
4575.4645064070419
 11
9021.8167691617418
 21
7376.1817313529345
  0
LINE
  8
_0-0_LAY0_0
  6
CONTINUOUS
 62
    7
 10
11167.29076488598
 20
6375.7318032754438
 11
11167.29076488598
 21
9176.4487189215579
  0
LINE
  8
_0-0_LAY0_0
  6
CONTINUOUS
 62
    7
 10
11167.29076488598
 20
9176.4487189215579
 11
9021.8167691617418
 21
7376.1817313529345
  0
LINE
  8
_0-0_LAY0_0
  6
CONTINUOUS
 62
    7
 10
3611.2456450591226
 20
8825.9390753668704
 11
9021.8167691617418
 21
7376.1817313529345
  0
LINE
  8
_0-0_LAY0_0
  6
DASHED1
 62
    7
 10
7902.1973481049426
 20
9625.7573720571163
 11
3611.2456450591226
 21
6025.2221597207563
  0
LINE
  8
_0-0_LAY0_0
  6
CONTINUOUS
 62
    7
 10
3611.2456450591226
 20
6025.2221597207563
 11
3611.2456450591226
 21
8825.9390753668704
  0
LINE
  8
_0-0_LAY0_0
  6
CONTINUOUS
 62
    7
 10
5756.7214965820312
 20
10626.207918734164
 11
3611.2456450591226
 21
8825.9390753668704
  0
LINE
  8
_0-0_LAY0_0
  6
DASHED1
 62
    7
 10
8462.005821434228
 20
7100.6098566828559
 11
10607.480435758025
 21
8900.8768442514775
  0
LINE
  8
_0-0_LAY0_0
  6
CONTINUOUS
 62
    7
 10
10607.480435758025
 20
14502.313149941934
 11
10607.480435758025
 21
9326.4504510003171
  0
LINE
  8
_0-0_LAY0_0
  6
DASHED1
 62
    7
 10
8462.005821434228
 20
9901.3280095280825
 11
8462.005821434228
 21
7100.6098566828559
  0
LINE
  8
_0-0_LAY0_0
  6
DASHED1
 62
    7
 10
7902.1973481049426
 20
9625.7573720571163
 11
10607.480435758025
 21
8900.8780814505917
  0
LINE
  8
_0-0_LAY0_0
  6
DASHED1
 62
    7
 10
8462.005821434228
 20
7100.6098566828559
 11
11167.29076488598
 21
6375.7318032754438
  0
LINE
  8
_0-0_LAY0_0
  6
CONTINUOUS
 62
    7
 10
5756.7214965820312
 20
10626.207918734164
 11
11167.29076488598
 21
9176.4487189215579
  0
LINE
  8
_0-0_LAY0_0
  6
DASHED1
 62
    7
 10
10607.480435758025
 20
8900.8780814505917
 11
10607.480435758025
 21
9326.4504510003171
  0
LINE
  8
_0-0_LAY0_0
  6
CONTINUOUS
 62
    7
 10
5756.7214965820312
 20
10626.207918734164
 11
5756.7214965820312
 21
13426.926071579393
  0
LINE
  8
_0-0_LAY0_0
  6
CONTINUOUS
 62
    7
 10
8462.005821434228
 20
12702.047399572424
 11
8462.005821434228
 21
9901.3280095280825
  0
LINE
  8
_0-0_LAY0_0
  6
CONTINUOUS
 62
    7
 10
8462.005821434228
 20
12702.047399572424
 11
5756.7214965820312
 21
13426.926071579393
  0
LINE
  8
_0-0_LAY0_0
  6
DASHED1
 62
    7
 10
7902.1954923062713
 20
15227.19429634713
 11
7902.1973481049426
 21
9625.7573720571163
  0
ENDSEC
  0
EOF
