  0
SECTION
  2
HEADER
  9
$ACADVER
  1
AC1015
  9
$ACADMAINTVER
 70
     6
  9
$DWGCODEPAGE
  3
ANSI_932
  9
$INSBASE
 10
0.0
 20
0.0
 30
0.0
  9
$EXTMIN
 10
0.0
 20
0.0
 30
0.0
  9
$EXTMAX
 10
29700.0
 20
21000.0
 30
0.0
  9
$LIMMIN
 10
0.0
 20
0.0
  9
$LIMMAX
 10
29700.0
 20
21000.0
  9
$ORTHOMODE
 70
     0
  9
$REGENMODE
 70
     1
  9
$FILLMODE
 70
     1
  9
$QTEXTMODE
 70
     0
  9
$MIRRTEXT
 70
     1
  9
$LTSCALE
 40
25.0
  9
$ATTMODE
 70
     1
  9
$TEXTSIZE
 40
500.0
  9
$TRACEWID
 40
0.05
  9
$TEXTSTYLE
  7
Standard
  9
$CLAYER
  8
0
  9
$CELTYPE
  6
ByLayer
  9
$CECOLOR
 62
   256
  9
$CELTSCALE
 40
1.0
  9
$DISPSILH
 70
     0
  9
$DIMSCALE
 40
100.0
  9
$DIMASZ
 40
5.0
  9
$DIMEXO
 40
2.0
  9
$DIMDLI
 40
10.0
  9
$DIMRND
 40
0.0
  9
$DIMDLE
 40
0.0
  9
$DIMEXE
 40
2.0
  9
$DIMTP
 40
0.0
  9
$DIMTM
 40
0.0
  9
$DIMTXT
 40
5.0
  9
$DIMCEN
 40
0.09
  9
$DIMTSZ
 40
0.0
  9
$DIMTOL
 70
     0
  9
$DIMLIM
 70
     0
  9
$DIMTIH
 70
     0
  9
$DIMTOH
 70
     0
  9
$DIMSE1
 70
     0
  9
$DIMSE2
 70
     0
  9
$DIMTAD
 70
     3
  9
$DIMZIN
 70
     8
  9
$DIMBLK
  1

  9
$DIMASO
 70
     1
  9
$DIMSHO
 70
     1
  9
$DIMPOST
  1

  9
$DIMAPOST
  1

  9
$DIMALT
 70
     0
  9
$DIMALTD
 70
     2
  9
$DIMALTF
 40
25.4
  9
$DIMLFAC
 40
1.0
  9
$DIMTOFL
 70
     1
  9
$DIMTVP
 40
0.7
  9
$DIMTIX
 70
     0
  9
$DIMSOXD
 70
     0
  9
$DIMSAH
 70
     0
  9
$DIMBLK1
  1

  9
$DIMBLK2
  1

  9
$DIMSTYLE
  2
Standard
  9
$DIMCLRD
 70
     0
  9
$DIMCLRE
 70
     0
  9
$DIMCLRT
 70
     0
  9
$DIMTFAC
 40
0.5
  9
$DIMGAP
 40
0.09
  9
$DIMJUST
 70
     0
  9
$DIMSD1
 70
     0
  9
$DIMSD2
 70
     0
  9
$DIMTOLJ
 70
     1
  9
$DIMTZIN
 70
     8
  9
$DIMALTZ
 70
     0
  9
$DIMALTTZ
 70
     0
  9
$DIMUPT
 70
     1
  9
$DIMDEC
 70
     2
  9
$DIMTDEC
 70
     4
  9
$DIMALTU
 70
     2
  9
$DIMALTTD
 70
     2
  9
$DIMTXSTY
  7
Standard
  9
$DIMAUNIT
 70
     0
  9
$DIMADEC
 70
     0
  9
$DIMALTRND
 40
0.0
  9
$DIMAZIN
 70
     0
  9
$DIMDSEP
 70
    46
  9
$DIMATFIT
 70
     2
  9
$DIMFRAC
 70
     0
  9
$DIMLDRBLK
  1

  9
$DIMLUNIT
 70
     2
  9
$DIMLWD
 70
    -2
  9
$DIMLWE
 70
    -2
  9
$DIMTMOVE
 70
     2
  9
$LUNITS
 70
     2
  9
$LUPREC
 70
     4
  9
$SKETCHINC
 40
0.1
  9
$FILLETRAD
 40
0.5
  9
$AUNITS
 70
     0
  9
$AUPREC
 70
     0
  9
$MENU
  1
.
  9
$ELEVATION
 40
0.0
  9
$PELEVATION
 40
0.0
  9
$THICKNESS
 40
0.0
  9
$LIMCHECK
 70
     0
  9
$CHAMFERA
 40
0.5
  9
$CHAMFERB
 40
0.5
  9
$CHAMFERC
 40
1.0
  9
$CHAMFERD
 40
0.0
  9
$SKPOLY
 70
     0
  9
$TDCREATE
 40
2454270.283993056
  9
$TDUCREATE
 40
2454269.908993056
  9
$TDUPDATE
 40
2454270.283993056
  9
$TDUUPDATE
 40
2454269.908993056
  9
$TDINDWG
 40
0.0000000116
  9
$TDUSRTIMER
 40
0.0000000116
  9
$USRTIMER
 70
     1
  9
$ANGBASE
 50
0.0
  9
$ANGDIR
 70
     0
  9
$PDMODE
 70
     0
  9
$PDSIZE
 40
0.0
  9
$PLINEWID
 40
0.0
  9
$SPLFRAME
 70
     0
  9
$SPLINETYPE
 70
     6
  9
$SPLINESEGS
 70
     8
  9
$HANDSEED
  5
2D2
  9
$SURFTAB1
 70
     6
  9
$SURFTAB2
 70
     6
  9
$SURFTYPE
 70
     6
  9
$SURFU
 70
     6
  9
$SURFV
 70
     6
  9
$UCSBASE
  2

  9
$UCSNAME
  2

  9
$UCSORG
 10
0.0
 20
0.0
 30
0.0
  9
$UCSXDIR
 10
1.0
 20
0.0
 30
0.0
  9
$UCSYDIR
 10
0.0
 20
1.0
 30
0.0
  9
$UCSORTHOREF
  2

  9
$UCSORTHOVIEW
 70
     0
  9
$UCSORGTOP
 10
0.0
 20
0.0
 30
0.0
  9
$UCSORGBOTTOM
 10
0.0
 20
0.0
 30
0.0
  9
$UCSORGLEFT
 10
0.0
 20
0.0
 30
0.0
  9
$UCSORGRIGHT
 10
0.0
 20
0.0
 30
0.0
  9
$UCSORGFRONT
 10
0.0
 20
0.0
 30
0.0
  9
$UCSORGBACK
 10
0.0
 20
0.0
 30
0.0
  9
$PUCSBASE
  2

  9
$PUCSNAME
  2

  9
$PUCSORG
 10
0.0
 20
0.0
 30
0.0
  9
$PUCSXDIR
 10
1.0
 20
0.0
 30
0.0
  9
$PUCSYDIR
 10
0.0
 20
1.0
 30
0.0
  9
$PUCSORTHOREF
  2

  9
$PUCSORTHOVIEW
 70
     0
  9
$PUCSORGTOP
 10
0.0
 20
0.0
 30
0.0
  9
$PUCSORGBOTTOM
 10
0.0
 20
0.0
 30
0.0
  9
$PUCSORGLEFT
 10
0.0
 20
0.0
 30
0.0
  9
$PUCSORGRIGHT
 10
0.0
 20
0.0
 30
0.0
  9
$PUCSORGFRONT
 10
0.0
 20
0.0
 30
0.0
  9
$PUCSORGBACK
 10
0.0
 20
0.0
 30
0.0
  9
$USERI1
 70
     0
  9
$USERI2
 70
     0
  9
$USERI3
 70
     0
  9
$USERI4
 70
     0
  9
$USERI5
 70
     0
  9
$USERR1
 40
0.0
  9
$USERR2
 40
0.0
  9
$USERR3
 40
0.0
  9
$USERR4
 40
0.0
  9
$USERR5
 40
0.0
  9
$WORLDVIEW
 70
     1
  9
$SHADEDGE
 70
     3
  9
$SHADEDIF
 70
    70
  9
$TILEMODE
 70
     1
  9
$MAXACTVP
 70
    64
  9
$PINSBASE
 10
0.0
 20
0.0
 30
0.0
  9
$PLIMCHECK
 70
     0
  9
$PEXTMIN
 10
0.0
 20
0.0
 30
0.0
  9
$PEXTMAX
 10
297.0
 20
210.0
 30
0.0
  9
$PLIMMIN
 10
0.0
 20
0.0
  9
$PLIMMAX
 10
297.0
 20
210.0
  9
$UNITMODE
 70
     0
  9
$VISRETAIN
 70
     1
  9
$PLINEGEN
 70
     0
  9
$PSLTSCALE
 70
     1
  9
$TREEDEPTH
 70
  3020
  9
$CMLSTYLE
  2
Standard
  9
$CMLJUST
 70
     0
  9
$CMLSCALE
 40
1.0
  9
$PROXYGRAPHICS
 70
     1
  9
$MEASUREMENT
 70
     1
  9
$CELWEIGHT
370
    -1
  9
$ENDCAPS
280
     0
  9
$JOINSTYLE
280
     0
  9
$LWDISPLAY
290
     0
  9
$INSUNITS
 70
     1
  9
$HYPERLINKBASE
  1

  9
$STYLESHEET
  1

  9
$XEDIT
290
     1
  9
$CEPSNTYPE
380
     0
  9
$PSTYLEMODE
290
     1
  9
$FINGERPRINTGUID
  2
{1A64E4C4-A4BB-4E23-96A8-371B12E0E981}
  9
$VERSIONGUID
  2
{FAEB1C32-E019-11D5-929B-00C0DF256EC4}
  9
$EXTNAMES
290
     1
  9
$PSVPSCALE
 40
0.0
  9
$OLESTARTUP
290
     0
  0
ENDSEC
  0
SECTION
  2
CLASSES
  0
CLASS
  1
ACDBDICTIONARYWDFLT
  2
AcDbDictionaryWithDefault
  3
ObjectDBX Classes
 90
        0
280
     0
281
     0
  0
CLASS
  1
DICTIONARYVAR
  2
AcDbDictionaryVar
  3
ObjectDBX Classes
 90
        0
280
     0
281
     0
  0
CLASS
  1
ACDBPLACEHOLDER
  2
AcDbPlaceHolder
  3
ObjectDBX Classes
 90
        0
280
     0
281
     0
  0
CLASS
  1
LAYOUT
  2
AcDbLayout
  3
ObjectDBX Classes
 90
        0
280
     0
281
     0
  0
ENDSEC
  0
SECTION
  2
TABLES
  0
TABLE
  2
VPORT
  5
8
330
0
100
AcDbSymbolTable
 70
     1
  0
VPORT
  5
29
330
8
100
AcDbSymbolTableRecord
100
AcDbViewportTableRecord
  2
*Active
 70
     0
 10
0.0
 20
0.0
 11
1.0
 21
1.0
 12
10.42990654205607
 22
4.5
 13
0.0
 23
0.0
 14
0.5
 24
0.5
 15
0.5
 25
0.5
 16
0.0
 26
0.0
 36
1.0
 17
0.0
 27
0.0
 37
0.0
 40
9.0
 41
1.972972972850329
 42
50.0
 43
0.0
 44
0.0
 50
0.0
 51
0.0
 71
     0
 72
   100
 73
     1
 74
     3
 75
     0
 76
     0
 77
     0
 78
     0
281
     0
 65
     1
110
0.0
120
0.0
130
0.0
111
1.0
121
0.0
131
0.0
112
0.0
122
1.0
132
0.0
 79
     0
146
0.0
  0
ENDTAB
  0
TABLE
  2
LTYPE
  5
5
330
0
100
AcDbSymbolTable
 70
     8
  0
LTYPE
  5
14
330
5
100
AcDbSymbolTableRecord
100
AcDbLinetypeTableRecord
  2
ByBlock
 70
     0
  3

 72
    65
 73
     0
 40
0.0
  0
LTYPE
  5
15
330
5
100
AcDbSymbolTableRecord
100
AcDbLinetypeTableRecord
  2
ByLayer
 70
     0
  3

 72
    65
 73
     0
 40
0.0
  0
LTYPE
  5
16
330
5
100
AcDbSymbolTableRecord
100
AcDbLinetypeTableRecord
  2
Continuous
 70
     0
  3
Solid line
 72
    65
 73
     0
 40
0.0
  0
LTYPE
  5
68
330
5
100
AcDbSymbolTableRecord
100
AcDbLinetypeTableRecord
  2
DOT
 70
     0
  3
Dot . . . . . . . . . . . . . . . . . . . . . .
 72
    65
 73
     2
 40
6.35
 49
0.0
 74
     0
 49
-6.35
 74
     0
  0
LTYPE
  5
69
330
5
100
AcDbSymbolTableRecord
100
AcDbLinetypeTableRecord
  2
HIDDEN
 70
     0
  3
Hidden __ __ __ __ __ __ __ __ __ __ __ __ __ _
 72
    65
 73
     2
 40
9.525
 49
6.35
 74
     0
 49
-3.175
 74
     0
  0
LTYPE
  5
6A
330
5
100
AcDbSymbolTableRecord
100
AcDbLinetypeTableRecord
  2
HIDDEN2
 70
     0
  3
Hidden (.5x) _ _ _ _ _ _ _ _ _ _ _ _ _ _ _ _ _
 72
    65
 73
     2
 40
4.7625
 49
3.175
 74
     0
 49
-1.5875
 74
     0
  0
LTYPE
  5
6B
330
5
100
AcDbSymbolTableRecord
100
AcDbLinetypeTableRecord
  2
CENTER
 70
     0
  3
Center ____ _ ____ _ ____ _ ____ _ ____ _ ____
 72
    65
 73
     4
 40
50.8
 49
31.75
 74
     0
 49
-6.35
 74
     0
 49
6.35
 74
     0
 49
-6.35
 74
     0
  0
LTYPE
  5
6C
330
5
100
AcDbSymbolTableRecord
100
AcDbLinetypeTableRecord
  2
CENTER2
 70
     0
  3
Center (.5x) ___ _ ___ _ ___ _ ___ _ ___ _ ___
 72
    65
 73
     4
 40
28.575
 49
19.05
 74
     0
 49
-3.175
 74
     0
 49
3.175
 74
     0
 49
-3.175
 74
     0
  0
LTYPE
  5
6D
330
5
100
AcDbSymbolTableRecord
100
AcDbLinetypeTableRecord
  2
PHANTOM
 70
     0
  3
Phantom ______  __  __  ______  __  __  ______
 72
    65
 73
     6
 40
63.5
 49
31.75
 74
     0
 49
-6.35
 74
     0
 49
6.35
 74
     0
 49
-6.35
 74
     0
 49
6.35
 74
     0
 49
-6.35
 74
     0
  0
LTYPE
  5
6E
330
5
100
AcDbSymbolTableRecord
100
AcDbLinetypeTableRecord
  2
PHANTOM2
 70
     0
  3
Phantom (.5x) ___ _ _ ___ _ _ ___ _ _ ___ _ _
 72
    65
 73
     6
 40
31.75
 49
15.875
 74
     0
 49
-3.175
 74
     0
 49
3.175
 74
     0
 49
-3.175
 74
     0
 49
3.175
 74
     0
 49
-3.175
 74
     0
  0
ENDTAB
  0
TABLE
  2
LAYER
  5
2
330
0
100
AcDbSymbolTable
 70
    18
  0
LAYER
  5
10
330
2
100
AcDbSymbolTableRecord
100
AcDbLayerTableRecord
  2
0
 70
     0
 62
   255
  6
Continuous
370
    50
390
F
  0
LAYER
  5
6F
330
2
100
AcDbSymbolTableRecord
100
AcDbLayerTableRecord
  2
object
 70
     0
 62
   255
  6
Continuous
370
    50
390
F
  0
LAYER
  5
70
330
2
100
AcDbSymbolTableRecord
100
AcDbLayerTableRecord
  2
center
 70
     0
 62
     1
  6
CENTER
370
    25
390
F
  0
LAYER
  5
71
330
2
100
AcDbSymbolTableRecord
100
AcDbLayerTableRecord
  2
hidden
 70
     0
 62
   255
  6
HIDDEN
370
    25
390
F
  0
LAYER
  5
72
330
2
100
AcDbSymbolTableRecord
100
AcDbLayerTableRecord
  2
phantom
 70
     0
 62
   255
  6
PHANTOM
370
    25
390
F
  0
LAYER
  5
73
330
2
100
AcDbSymbolTableRecord
100
AcDbLayerTableRecord
  2
dim
 70
     0
 62
   255
  6
Continuous
370
    25
390
F
  0
LAYER
  5
74
330
2
100
AcDbSymbolTableRecord
100
AcDbLayerTableRecord
  2
解答枠
 70
     0
 62
   255
  6
Continuous
370
    50
390
F
  0
LAYER
  5
75
330
2
100
AcDbSymbolTableRecord
100
AcDbLayerTableRecord
  2
太い実線
 70
     0
 62
   255
  6
Continuous
370
    50
390
F
  0
LAYER
  5
76
330
2
100
AcDbSymbolTableRecord
100
AcDbLayerTableRecord
  2
細い実線
 70
     0
 62
   255
  6
Continuous
370
    50
390
F
  0
LAYER
  5
77
330
2
100
AcDbSymbolTableRecord
100
AcDbLayerTableRecord
  2
細い破線
 70
     0
 62
   255
  6
HIDDEN
370
    50
390
F
  0
LAYER
  5
78
330
2
100
AcDbSymbolTableRecord
100
AcDbLayerTableRecord
  2
文字
 70
     0
 62
   255
  6
Continuous
370
    50
390
F
  0
LAYER
  5
79
330
2
100
AcDbSymbolTableRecord
100
AcDbLayerTableRecord
  2
細い一点鎖線
 70
     0
 62
   255
  6
CENTER
370
    50
390
F
  0
LAYER
  5
7A
330
2
100
AcDbSymbolTableRecord
100
AcDbLayerTableRecord
  2
MOJI
 70
     0
 62
   255
  6
Continuous
370
    50
390
F
  0
LAYER
  5
7B
330
2
100
AcDbSymbolTableRecord
100
AcDbLayerTableRecord
  2
WAKU
 70
     0
 62
   255
  6
Continuous
370
    50
390
F
  0
LAYER
  5
7C
330
2
100
AcDbSymbolTableRecord
100
AcDbLayerTableRecord
  2
SONOTA
 70
     0
 62
   255
  6
Continuous
370
    50
390
F
  0
LAYER
  5
7D
330
2
100
AcDbSymbolTableRecord
100
AcDbLayerTableRecord
  2
kutai
 70
     0
 62
     1
  6
Continuous
370
    50
390
F
  0
LAYER
  5
7E
330
2
100
AcDbSymbolTableRecord
100
AcDbLayerTableRecord
  2
majikiri
 70
     0
 62
   255
  6
Continuous
370
    50
390
F
  0
LAYER
  5
7F
330
2
100
AcDbSymbolTableRecord
100
AcDbLayerTableRecord
  2
sunpou
 70
     0
 62
   255
  6
Continuous
370
    50
390
F
  0
ENDTAB
  0
TABLE
  2
STYLE
  5
3
330
0
100
AcDbSymbolTable
 70
     2
  0
STYLE
  5
11
330
3
100
AcDbSymbolTableRecord
100
AcDbTextStyleTableRecord
  2
Standard
 70
     0
 40
0.0
 41
1.0
 50
0.0
 71
     0
 42
0.2
  3
txt
  4
bigfont
  0
STYLE
  5
2C
330
3
100
AcDbSymbolTableRecord
100
AcDbTextStyleTableRecord
  2
T_STANDARD
 70
     4
 40
10.0
 41
1.0
 50
0.0
 71
     0
 42
10.0
  3
txt
  4
bigfont
  0
ENDTAB
  0
TABLE
  2
VIEW
  5
6
330
0
100
AcDbSymbolTable
 70
     0
  0
ENDTAB
  0
TABLE
  2
UCS
  5
7
330
0
100
AcDbSymbolTable
 70
     0
  0
ENDTAB
  0
TABLE
  2
APPID
  5
9
330
0
100
AcDbSymbolTable
 70
     2
  0
APPID
  5
12
330
9
100
AcDbSymbolTableRecord
100
AcDbRegAppTableRecord
  2
ACAD
 70
     0
  0
APPID
  5
2B
330
9
100
AcDbSymbolTableRecord
100
AcDbRegAppTableRecord
  2
ODA
 70
     0
  0
ENDTAB
  0
TABLE
  2
DIMSTYLE
  5
A
330
0
100
AcDbSymbolTable
 70
     1
100
AcDbDimStyleTable
  0
DIMSTYLE
105
27
330
A
100
AcDbSymbolTableRecord
100
AcDbDimStyleTableRecord
  2
Standard
 70
     0
340
11
  0
ENDTAB
  0
TABLE
  2
BLOCK_RECORD
  5
1
330
0
100
AcDbSymbolTable
 70
    12
  0
BLOCK_RECORD
  5
1F
330
1
100
AcDbSymbolTableRecord
100
AcDbBlockTableRecord
  2
*Model_Space
340
22
  0
BLOCK_RECORD
  5
1B
330
1
100
AcDbSymbolTableRecord
100
AcDbBlockTableRecord
  2
*Paper_Space
340
1E
  0
BLOCK_RECORD
  5
23
330
1
100
AcDbSymbolTableRecord
100
AcDbBlockTableRecord
  2
*Paper_Space0
340
26
  0
BLOCK_RECORD
  5
2D
330
1
100
AcDbSymbolTableRecord
100
AcDbBlockTableRecord
  2
_ORIGIN
340
0
  0
BLOCK_RECORD
  5
32
330
1
100
AcDbSymbolTableRecord
100
AcDbBlockTableRecord
  2
_DOTBLANK
340
0
  0
BLOCK_RECORD
  5
37
330
1
100
AcDbSymbolTableRecord
100
AcDbBlockTableRecord
  2
_DOT
340
0
  0
BLOCK_RECORD
  5
3C
330
1
100
AcDbSymbolTableRecord
100
AcDbBlockTableRecord
  2
_OPEN
340
0
  0
BLOCK_RECORD
  5
42
330
1
100
AcDbSymbolTableRecord
100
AcDbBlockTableRecord
  2
_CLOSED
340
0
  0
BLOCK_RECORD
  5
49
330
1
100
AcDbSymbolTableRecord
100
AcDbBlockTableRecord
  2
_CLOSEDBLANK
340
0
  0
BLOCK_RECORD
  5
4F
330
1
100
AcDbSymbolTableRecord
100
AcDbBlockTableRecord
  2
_BOXBLANK
340
0
  0
BLOCK_RECORD
  5
57
330
1
100
AcDbSymbolTableRecord
100
AcDbBlockTableRecord
  2
_BOXFILLED
340
0
  0
BLOCK_RECORD
  5
5C
330
1
100
AcDbSymbolTableRecord
100
AcDbBlockTableRecord
  2
_INTEGRAL
340
0
  0
BLOCK_RECORD
  5
61
330
1
100
AcDbSymbolTableRecord
100
AcDbBlockTableRecord
  2
_OBLIQUE
340
0
  0
BLOCK_RECORD
  5
65
330
1
100
AcDbSymbolTableRecord
100
AcDbBlockTableRecord
  2
_NONE
340
0
  0
ENDTAB
  0
ENDSEC
  0
SECTION
  2
BLOCKS
  0
BLOCK
  5
20
330
1F
100
AcDbEntity
  8
0
100
AcDbBlockBegin
  2
*Model_Space
 70
     0
 71
     0
 10
0.0
 20
0.0
 30
0.0
  3
*Model_Space
  1

  0
ENDBLK
  5
21
330
1F
100
AcDbEntity
  8
0
100
AcDbBlockEnd
  0
BLOCK
  5
1C
330
1B
100
AcDbEntity
 67
     1
  8
0
100
AcDbBlockBegin
  2
*Paper_Space
 70
     0
 71
     0
 10
0.0
 20
0.0
 30
0.0
  3
*Paper_Space
  1

  0
ENDBLK
  5
1D
330
1B
100
AcDbEntity
 67
     1
  8
0
100
AcDbBlockEnd
  0
BLOCK
  5
24
330
23
100
AcDbEntity
  8
0
100
AcDbBlockBegin
  2
*Paper_Space0
 70
     0
 71
     0
 10
0.0
 20
0.0
 30
0.0
  3
*Paper_Space0
  1

  0
ENDBLK
  5
25
330
23
100
AcDbEntity
  8
0
100
AcDbBlockEnd
  0
BLOCK
  5
30
330
2D
100
AcDbEntity
  8
0
100
AcDbBlockBegin
  2
_ORIGIN
 70
     0
 71
     0
 10
0.0
 20
0.0
 30
0.0
  3
_ORIGIN
  1

  0
CIRCLE
  5
2E
330
2D
100
AcDbEntity
  8
0
100
AcDbCircle
 10
0.0
 20
0.0
 30
0.0
 40
0.5
  0
LINE
  5
2F
330
2D
100
AcDbEntity
  8
0
100
AcDbLine
 10
0.0
 20
0.0
 30
0.0
 11
-1.0
 21
0.0
 31
0.0
  0
ENDBLK
  5
31
330
2D
100
AcDbEntity
  8
0
100
AcDbBlockEnd
  0
BLOCK
  5
35
330
32
100
AcDbEntity
  8
0
100
AcDbBlockBegin
  2
_DOTBLANK
 70
     0
 71
     0
 10
0.0
 20
0.0
 30
0.0
  3
_DOTBLANK
  1

  0
CIRCLE
  5
33
330
32
100
AcDbEntity
  8
0
100
AcDbCircle
 10
0.0
 20
0.0
 30
0.0
 40
0.5
  0
LINE
  5
34
330
32
100
AcDbEntity
  8
0
100
AcDbLine
 10
-0.5
 20
0.0
 30
0.0
 11
-1.0
 21
0.0
 31
0.0
  0
ENDBLK
  5
36
330
32
100
AcDbEntity
  8
0
100
AcDbBlockEnd
  0
BLOCK
  5
3A
330
37
100
AcDbEntity
  8
0
100
AcDbBlockBegin
  2
_DOT
 70
     0
 71
     0
 10
0.0
 20
0.0
 30
0.0
  3
_DOT
  1

  0
LWPOLYLINE
  5
38
330
37
100
AcDbEntity
  8
0
100
AcDbPolyline
 90
        2
 70
     1
 43
0.5
 10
-0.25
 20
0.0
 42
1.0
 10
0.25
 20
0.0
 42
1.0
  0
LINE
  5
39
330
37
100
AcDbEntity
  8
0
100
AcDbLine
 10
-0.5
 20
0.0
 30
0.0
 11
-1.0
 21
0.0
 31
0.0
  0
ENDBLK
  5
3B
330
37
100
AcDbEntity
  8
0
100
AcDbBlockEnd
  0
BLOCK
  5
40
330
3C
100
AcDbEntity
  8
0
100
AcDbBlockBegin
  2
_OPEN
 70
     0
 71
     0
 10
0.0
 20
0.0
 30
0.0
  3
_OPEN
  1

  0
LINE
  5
3D
330
3C
100
AcDbEntity
  8
0
100
AcDbLine
 10
-1.0
 20
0.1666666666666667
 30
0.0
 11
0.0
 21
0.0
 31
0.0
  0
LINE
  5
3E
330
3C
100
AcDbEntity
  8
0
100
AcDbLine
 10
-1.0
 20
-0.1666666666666667
 30
0.0
 11
0.0
 21
0.0
 31
0.0
  0
LINE
  5
3F
330
3C
100
AcDbEntity
  8
0
100
AcDbLine
 10
0.0
 20
0.0
 30
0.0
 11
-1.0
 21
0.0
 31
0.0
  0
ENDBLK
  5
41
330
3C
100
AcDbEntity
  8
0
100
AcDbBlockEnd
  0
BLOCK
  5
47
330
42
100
AcDbEntity
  8
0
100
AcDbBlockBegin
  2
_CLOSED
 70
     0
 71
     0
 10
0.0
 20
0.0
 30
0.0
  3
_CLOSED
  1

  0
LINE
  5
43
330
42
100
AcDbEntity
  8
0
100
AcDbLine
 10
-1.0
 20
0.1666666666666667
 30
0.0
 11
0.0
 21
0.0
 31
0.0
  0
LINE
  5
44
330
42
100
AcDbEntity
  8
0
100
AcDbLine
 10
0.0
 20
0.0
 30
0.0
 11
-1.0
 21
-0.1666666666666667
 31
0.0
  0
LINE
  5
45
330
42
100
AcDbEntity
  8
0
100
AcDbLine
 10
-1.0
 20
0.1666666666666667
 30
0.0
 11
-1.0
 21
-0.1666666666666667
 31
0.0
  0
LINE
  5
46
330
42
100
AcDbEntity
  8
0
100
AcDbLine
 10
0.0
 20
0.0
 30
0.0
 11
-1.0
 21
0.0
 31
0.0
  0
ENDBLK
  5
48
330
42
100
AcDbEntity
  8
0
100
AcDbBlockEnd
  0
BLOCK
  5
4D
330
49
100
AcDbEntity
  8
0
100
AcDbBlockBegin
  2
_CLOSEDBLANK
 70
     0
 71
     0
 10
0.0
 20
0.0
 30
0.0
  3
_CLOSEDBLANK
  1

  0
LINE
  5
4A
330
49
100
AcDbEntity
  8
0
100
AcDbLine
 10
-1.0
 20
0.1666666666666667
 30
0.0
 11
0.0
 21
0.0
 31
0.0
  0
LINE
  5
4B
330
49
100
AcDbEntity
  8
0
100
AcDbLine
 10
0.0
 20
0.0
 30
0.0
 11
-1.0
 21
-0.1666666666666667
 31
0.0
  0
LINE
  5
4C
330
49
100
AcDbEntity
  8
0
100
AcDbLine
 10
-1.0
 20
0.1666666666666667
 30
0.0
 11
-1.0
 21
-0.1666666666666667
 31
0.0
  0
ENDBLK
  5
4E
330
49
100
AcDbEntity
  8
0
100
AcDbBlockEnd
  0
BLOCK
  5
55
330
4F
100
AcDbEntity
  8
0
100
AcDbBlockBegin
  2
_BOXBLANK
 70
     0
 71
     0
 10
0.0
 20
0.0
 30
0.0
  3
_BOXBLANK
  1

  0
LINE
  5
50
330
4F
100
AcDbEntity
  8
0
100
AcDbLine
 10
-0.5
 20
-0.5
 30
0.0
 11
0.5
 21
-0.5
 31
0.0
  0
LINE
  5
51
330
4F
100
AcDbEntity
  8
0
100
AcDbLine
 10
0.5
 20
-0.5
 30
0.0
 11
0.5
 21
0.5
 31
0.0
  0
LINE
  5
52
330
4F
100
AcDbEntity
  8
0
100
AcDbLine
 10
0.5
 20
0.5
 30
0.0
 11
-0.5
 21
0.5
 31
0.0
  0
LINE
  5
53
330
4F
100
AcDbEntity
  8
0
100
AcDbLine
 10
-0.5
 20
0.5
 30
0.0
 11
-0.5
 21
-0.5
 31
0.0
  0
LINE
  5
54
330
4F
100
AcDbEntity
  8
0
100
AcDbLine
 10
-0.5
 20
0.0
 30
0.0
 11
-1.0
 21
0.0
 31
0.0
  0
ENDBLK
  5
56
330
4F
100
AcDbEntity
  8
0
100
AcDbBlockEnd
  0
BLOCK
  5
5A
330
57
100
AcDbEntity
  8
0
100
AcDbBlockBegin
  2
_BOXFILLED
 70
     0
 71
     0
 10
0.0
 20
0.0
 30
0.0
  3
_BOXFILLED
  1

  0
SOLID
  5
58
330
57
100
AcDbEntity
  8
0
100
AcDbTrace
 10
-0.5
 20
0.5
 30
0.0
 11
0.5
 21
0.5
 31
0.0
 12
-0.5
 22
-0.5
 32
0.0
 13
0.5
 23
-0.5
 33
0.0
  0
LINE
  5
59
330
57
100
AcDbEntity
  8
0
100
AcDbLine
 10
-0.5
 20
0.0
 30
0.0
 11
-1.0
 21
0.0
 31
0.0
  0
ENDBLK
  5
5B
330
57
100
AcDbEntity
  8
0
100
AcDbBlockEnd
  0
BLOCK
  5
5F
330
5C
100
AcDbEntity
  8
0
100
AcDbBlockBegin
  2
_INTEGRAL
 70
     0
 71
     0
 10
0.0
 20
0.0
 30
0.0
  3
_INTEGRAL
  1

  0
ARC
  5
5D
330
5C
100
AcDbEntity
  8
0
100
AcDbCircle
 10
0.444888
 20
-0.0913346
 30
0.0
 40
0.4541666
100
AcDbArc
 50
5844.169510334397
 51
9625.690958197831
  0
ARC
  5
5E
330
5C
100
AcDbEntity
  8
0
100
AcDbCircle
 10
-0.444888
 20
0.0913346
 30
0.0
 40
0.4541666
100
AcDbArc
 50
16157.40982268922
 51
19938.93127055265
  0
ENDBLK
  5
60
330
5C
100
AcDbEntity
  8
0
100
AcDbBlockEnd
  0
BLOCK
  5
63
330
61
100
AcDbEntity
  8
0
100
AcDbBlockBegin
  2
_OBLIQUE
 70
     0
 71
     0
 10
0.0
 20
0.0
 30
0.0
  3
_OBLIQUE
  1

  0
LINE
  5
62
330
61
100
AcDbEntity
  8
0
100
AcDbLine
 10
-0.5
 20
-0.5
 30
0.0
 11
0.5
 21
0.5
 31
0.0
  0
ENDBLK
  5
64
330
61
100
AcDbEntity
  8
0
100
AcDbBlockEnd
  0
BLOCK
  5
66
330
65
100
AcDbEntity
  8
0
100
AcDbBlockBegin
  2
_NONE
 70
     0
 71
     0
 10
0.0
 20
0.0
 30
0.0
  3
_NONE
  1

  0
ENDBLK
  5
67
330
65
100
AcDbEntity
  8
0
100
AcDbBlockEnd
  0
ENDSEC
  0
SECTION
  2
ENTITIES
  0
LINE
  5
80
330
1F
100
AcDbEntity
  8
WAKU
  6
Continuous
 62
   255
370
    50
100
AcDbLine
 10
1.812633497400384
 20
1.281660048654885
 30
0.0
 11
27702.8126334974
 21
1.281660048654885
 31
0.0
  0
LINE
  5
81
330
1F
100
AcDbEntity
  8
WAKU
  6
Continuous
 62
   255
370
    50
100
AcDbLine
 10
20702.8126334974
 20
601.2816600486549
 30
0.0
 11
27702.8126334974
 21
601.2816600486549
 31
0.0
  0
LINE
  5
82
330
1F
100
AcDbEntity
  8
WAKU
  6
Continuous
 62
   255
370
    50
100
AcDbLine
 10
27702.8126334974
 20
1.281660048654885
 30
0.0
 11
27702.8126334974
 21
19002.28166004866
 31
0.0
  0
LINE
  5
83
330
1F
100
AcDbEntity
  8
WAKU
  6
Continuous
 62
   255
370
    50
100
AcDbLine
 10
20702.8126334974
 20
1201.281660048655
 30
0.0
 11
20702.8126334974
 21
6701.281660048655
 31
0.0
  0
LINE
  5
84
330
1F
100
AcDbEntity
  8
WAKU
  6
Continuous
 62
   255
370
    50
100
AcDbLine
 10
27702.8126334974
 20
19002.28166004866
 30
0.0
 11
1.812633497400384
 21
19002.28166004866
 31
0.0
  0
LINE
  5
85
330
1F
100
AcDbEntity
  8
WAKU
  6
Continuous
 62
   255
370
    50
100
AcDbLine
 10
1.812633497400384
 20
19002.28166004866
 30
0.0
 11
1.812633497400384
 21
1.281660048654885
 31
0.0
  0
LINE
  5
86
330
1F
100
AcDbEntity
  8
WAKU
  6
Continuous
 62
   255
370
    50
100
AcDbLine
 10
20702.8126334974
 20
1.281660048654885
 30
0.0
 11
20702.8126334974
 21
1201.281660048655
 31
0.0
  0
LINE
  5
87
330
1F
100
AcDbEntity
  8
WAKU
  6
Continuous
 62
   255
370
    50
100
AcDbLine
 10
22802.8126334974
 20
1.281660048654885
 30
0.0
 11
22802.8126334974
 21
1201.281660048655
 31
0.0
  0
TEXT
  5
88
330
1F
100
AcDbEntity
  8
WAKU
  6
Continuous
 62
   255
370
    25
100
AcDbText
 10
21102.8126334974
 20
151.2816600486549
 30
0.0
 40
300.0
  1
NAME
 41
0.5
100
AcDbText
  0
LINE
  5
89
330
1F
100
AcDbEntity
  8
WAKU
  6
Continuous
 62
   255
370
    50
100
AcDbLine
 10
21202.8126334974
 20
3951.281660048655
 30
0.0
 11
22952.8126334974
 21
3951.281660048655
 31
0.0
  0
TEXT
  5
8A
330
1F
100
AcDbEntity
  8
MOJI
  6
Continuous
 62
   255
370
    25
100
AcDbText
 10
23202.8126334974
 20
3301.281660048655
 30
0.0
 40
280.0
  1
moji
 41
0.5
100
AcDbText
  0
LINE
  5
8B
330
1F
100
AcDbEntity
  8
WAKU
  6
Continuous
 62
   255
370
    50
100
AcDbLine
 10
20702.8126334974
 20
6701.281660048655
 30
0.0
 11
27702.8126334974
 21
6701.281660048655
 31
0.0
  0
TEXT
  5
8C
330
1F
100
AcDbEntity
  8
WAKU
  6
Continuous
 62
   255
370
    25
100
AcDbText
 10
23202.8126334974
 20
3801.281660048655
 30
0.0
 40
280.0
  1
waku
 41
0.5
100
AcDbText
  0
LINE
  5
8D
330
1F
100
AcDbEntity
  8
WAKU
  6
Continuous
 62
   255
370
    50
100
AcDbLine
 10
21702.8126334974
 20
2242.225635987555
 30
0.0
 11
26702.8126334974
 21
2242.225635987555
 31
0.0
  0
LINE
  5
8E
330
1F
100
AcDbEntity
  8
WAKU
  6
Continuous
 62
   255
370
    50
100
AcDbLine
 10
21702.8126334974
 20
1942.225635987555
 30
0.0
 11
26702.8126334974
 21
1942.225635987555
 31
0.0
  0
LINE
  5
8F
330
1F
100
AcDbEntity
  8
WAKU
  6
Continuous
 62
   255
370
    50
100
AcDbLine
 10
21702.8126334974
 20
2242.225635987555
 30
0.0
 11
21702.8126334974
 21
1942.225635987555
 31
0.0
  0
LINE
  5
90
330
1F
100
AcDbEntity
  8
WAKU
  6
Continuous
 62
   255
370
    50
100
AcDbLine
 10
22702.8126334974
 20
2242.225635987555
 30
0.0
 11
22702.8126334974
 21
1942.225635987555
 31
0.0
  0
LINE
  5
91
330
1F
100
AcDbEntity
  8
WAKU
  6
Continuous
 62
   255
370
    50
100
AcDbLine
 10
23702.8126334974
 20
2242.225635987555
 30
0.0
 11
23702.8126334974
 21
1942.225635987555
 31
0.0
  0
LINE
  5
92
330
1F
100
AcDbEntity
  8
WAKU
  6
Continuous
 62
   255
370
    50
100
AcDbLine
 10
24702.8126334974
 20
2242.225635987555
 30
0.0
 11
24702.8126334974
 21
1942.225635987555
 31
0.0
  0
LINE
  5
93
330
1F
100
AcDbEntity
  8
WAKU
  6
Continuous
 62
   255
370
    50
100
AcDbLine
 10
25702.8126334974
 20
2242.225635987555
 30
0.0
 11
25702.8126334974
 21
1942.225635987555
 31
0.0
  0
LINE
  5
94
330
1F
100
AcDbEntity
  8
WAKU
  6
Continuous
 62
   255
370
    50
100
AcDbLine
 10
26702.8126334974
 20
2242.225635987555
 30
0.0
 11
26702.8126334974
 21
1942.225635987555
 31
0.0
  0
TEXT
  5
95
330
1F
100
AcDbEntity
  8
WAKU
  6
Continuous
 62
   255
370
    25
100
AcDbText
 10
21637.1958355974
 20
2367.684953648655
 30
0.0
 40
200.0
  1
0
 41
0.5
100
AcDbText
  0
TEXT
  5
96
330
1F
100
AcDbEntity
  8
WAKU
  6
Continuous
 62
   255
370
    25
100
AcDbText
 10
26102.8126334974
 20
2367.684953648655
 30
0.0
 40
200.0
  1
5000mm
 41
0.5
100
AcDbText
  0
LINE
  5
97
330
1F
100
AcDbEntity
  8
WAKU
  6
Continuous
 62
   255
370
    50
100
AcDbLine
 10
20702.8126334974
 20
1201.281660048655
 30
0.0
 11
27702.8126334974
 21
1201.281660048655
 31
0.0
  0
TEXT
  5
98
330
1F
100
AcDbEntity
  8
WAKU
  6
Continuous
 62
   255
370
    25
100
AcDbText
 10
201.8126334974004
 20
18402.28166004866
 30
0.0
 40
400.0
  1
問３
100
AcDbText
  0
TEXT
  5
99
330
1F
100
AcDbEntity
  8
MOJI
  6
Continuous
 62
   255
370
    25
100
AcDbText
 10
21302.8126334974
 20
3301.281660048655
 30
0.0
 40
280.0
  1
ABCDEF
 41
0.5
100
AcDbText
  0
TEXT
  5
9A
330
1F
100
AcDbEntity
  8
WAKU
  6
Continuous
 62
   255
370
    25
100
AcDbText
 10
21102.8126334974
 20
751.2816600486549
 30
0.0
 40
300.0
  1
TYPE
 41
0.5
100
AcDbText
  0
TEXT
  5
9B
330
1F
100
AcDbEntity
  8
MOJI
  6
Continuous
 62
   255
370
    25
100
AcDbText
 10
25202.8126334974
 20
751.2816600486549
 30
0.0
 40
300.0
  1
1
 41
0.5
100
AcDbText
  0
TEXT
  5
9C
330
1F
100
AcDbEntity
  8
WAKU
  6
Continuous
 62
   255
370
    25
100
AcDbText
 10
17202.8126334974
 20
19252.28166004866
 30
0.0
 40
400.0
  1
平成１９年度１級（前期） トレース ＴＹＰＥ１
100
AcDbText
  0
LINE
  5
9D
330
1F
100
AcDbEntity
  8
SONOTA
  6
Continuous
 62
   255
370
    50
100
AcDbLine
 10
21202.8126334974
 20
4451.281660048655
 30
0.0
 11
22952.8126334974
 21
4451.281660048655
 31
0.0
  0
TEXT
  5
9E
330
1F
100
AcDbEntity
  8
SONOTA
  6
Continuous
 62
   255
370
    25
100
AcDbText
 10
23202.8126334974
 20
4301.281660048655
 30
0.0
 40
280.0
  1
sonota
 41
0.5
100
AcDbText
  0
LINE
  5
9F
330
1F
100
AcDbEntity
  8
kutai
  6
Continuous
 62
     1
370
    50
100
AcDbLine
 10
11000.7848240654
 20
14412.28332739466
 30
0.0
 11
14473.2848240654
 21
14412.28332739466
 31
0.0
  0
LINE
  5
A0
330
1F
100
AcDbEntity
  8
SONOTA
  6
Continuous
 62
   255
370
    50
100
AcDbLine
 10
13608.2848240654
 20
5891.283327395055
 30
0.0
 11
14628.2848240654
 21
5891.283327395055
 31
0.0
  0
LINE
  5
A1
330
1F
100
AcDbEntity
  8
SONOTA
  6
Continuous
 62
   255
370
    50
100
AcDbLine
 10
13608.2848240654
 20
5821.283327395054
 30
0.0
 11
14628.2848240654
 21
5821.283327395054
 31
0.0
  0
LINE
  5
A2
330
1F
100
AcDbEntity
  8
SONOTA
  6
Continuous
 62
   255
370
    50
100
AcDbLine
 10
13608.2848240654
 20
5856.283327395055
 30
0.0
 11
14628.2848240654
 21
5856.283327395055
 31
0.0
  0
LINE
  5
A3
330
1F
100
AcDbEntity
  8
kutai
  6
Continuous
 62
     1
370
    50
100
AcDbLine
 10
5663.284824065501
 20
14551.28332739466
 30
0.0
 11
14473.2848240654
 21
14551.28332739466
 31
0.0
  0
LINE
  5
A4
330
1F
100
AcDbEntity
  8
sunpou
  6
Continuous
 62
   255
370
    50
100
AcDbLine
 10
4059.7318437561
 20
3528.783527395055
 30
0.0
 11
16773.2848240654
 21
3528.783527395055
 31
0.0
  0
LINE
  5
A5
330
1F
100
AcDbEntity
  8
sunpou
  6
Continuous
 62
   255
370
    50
100
AcDbLine
 10
16773.2848240654
 20
16551.28332739466
 30
0.0
 11
5563.284824065501
 21
16551.28332739466
 31
0.0
  0
LINE
  5
A6
330
1F
100
AcDbEntity
  8
sunpou
  6
Continuous
 62
   255
370
    50
100
AcDbLine
 10
4059.7318437561
 20
3228.783527395055
 30
0.0
 11
16773.2848240654
 21
3228.783527395055
 31
0.0
  0
LINE
  5
A7
330
1F
100
AcDbEntity
  8
sunpou
  6
Continuous
 62
   255
370
    50
100
AcDbLine
 10
16773.2848240654
 20
16851.28332739466
 30
0.0
 11
5563.284824065501
 21
16851.28332739466
 31
0.0
  0
ARC
  5
A8
330
1F
100
AcDbEntity
  8
SONOTA
  6
Continuous
 62
   255
370
    50
100
AcDbCircle
 10
7644.0280018056
 20
10232.01102700166
 30
0.0
 40
774.7571640100905
100
AcDbArc
 50
270.4996950323896
 51
359.9461842700296
  0
LINE
  5
A9
330
1F
100
AcDbEntity
  8
SONOTA
  6
Continuous
 62
   255
370
    50
100
AcDbLine
 10
6613.284824065501
 20
10593.78032739465
 30
0.0
 11
6613.284824065501
 21
9168.783327395055
 31
0.0
  0
LINE
  5
AA
330
1F
100
AcDbEntity
  8
SONOTA
  6
Continuous
 62
   255
370
    50
100
AcDbLine
 10
6713.284824065501
 20
10593.78032739465
 30
0.0
 11
6713.284824065501
 21
9168.783327395055
 31
0.0
  0
ARC
  5
AB
330
1F
100
AcDbEntity
  8
SONOTA
  6
Continuous
 62
   255
370
    50
100
AcDbCircle
 10
5463.2848240655
 20
9391.283327395055
 30
0.0
 40
820.0
100
AcDbArc
 50
89.99999999999992
 51
179.9999999999998
  0
TEXT
  5
AC
330
1F
100
AcDbEntity
  8
sunpou
  6
Continuous
 62
   255
370
    25
100
AcDbText
 10
2954.5348240655
 20
9563.394759756055
 30
0.0
 40
200.0
  1
1,500
 50
89.99999999999992
 41
0.5
100
AcDbText
  0
LINE
  5
AD
330
1F
100
AcDbEntity
  8
sunpou
  6
Continuous
 62
   255
370
    50
100
AcDbLine
 10
2969.5348240655
 20
6031.283327395055
 30
0.0
 11
2969.5348240655
 21
14481.28332739466
 31
0.0
  0
LINE
  5
AE
330
1F
100
AcDbEntity
  8
sunpou
  6
Continuous
 62
   255
370
    50
100
AcDbLine
 10
2669.5348240655
 20
6031.283327395055
 30
0.0
 11
2669.5348240655
 21
14481.28332739466
 31
0.0
  0
LINE
  5
AF
330
1F
100
AcDbEntity
  8
kutai
  6
Continuous
 62
     1
370
    50
100
AcDbLine
 10
4153.2848240655
 20
9093.783327395055
 30
0.0
 11
5663.284824065501
 21
9093.783327395055
 31
0.0
  0
LINE
  5
B0
330
1F
100
AcDbEntity
  8
kutai
  6
Continuous
 62
     1
370
    50
100
AcDbLine
 10
3953.2848240655
 20
9293.783327395055
 30
0.0
 11
5463.2848240655
 21
9293.783327395055
 31
0.0
  0
LINE
  5
B1
330
1F
100
AcDbEntity
  8
SONOTA
  6
Continuous
 62
   255
370
    50
100
AcDbLine
 10
5463.2848240655
 20
9391.283327395055
 30
0.0
 11
4643.2848240655
 21
9391.283327395055
 31
0.0
  0
LINE
  5
B2
330
1F
100
AcDbEntity
  8
SONOTA
  6
Continuous
 62
   255
370
    50
100
AcDbLine
 10
4255.781824065501
 20
6801.283327395055
 30
0.0
 11
5915.781824065501
 21
6801.283327395055
 31
0.0
  0
LINE
  5
B3
330
1F
100
AcDbEntity
  8
SONOTA
  6
Continuous
 62
   255
370
    50
100
AcDbLine
 10
4255.781824065501
 20
6771.283327395054
 30
0.0
 11
5915.781824065501
 21
6771.283327395054
 31
0.0
  0
LINE
  5
B4
330
1F
100
AcDbEntity
  8
kutai
  6
Continuous
 62
     1
370
    50
100
AcDbLine
 10
3869.5348240655
 20
5931.283327395055
 30
0.0
 11
6485.784824065501
 21
5931.283327395055
 31
0.0
  0
LINE
  5
B5
330
1F
100
AcDbEntity
  8
kutai
  6
Continuous
 62
     1
370
    50
100
AcDbLine
 10
4153.2848240655
 20
6131.283327395055
 30
0.0
 11
6485.784824065501
 21
6131.283327395055
 31
0.0
  0
TEXT
  5
B6
330
1F
100
AcDbEntity
  8
sunpou
  6
Continuous
 62
   255
370
    25
100
AcDbText
 10
4652.553048461401
 20
3534.233216542555
 30
0.0
 40
200.0
  1
1,950
 41
0.5
100
AcDbText
  0
LINE
  5
B7
330
1F
100
AcDbEntity
  8
sunpou
  6
Continuous
 62
   255
370
    50
100
AcDbLine
 10
4059.7318437561
 20
3228.783527395055
 30
0.0
 11
4059.7318437561
 21
4128.783527395055
 31
0.0
  0
LINE
  5
B8
330
1F
100
AcDbEntity
  8
sunpou
  6
Continuous
 62
   255
370
    50
100
AcDbLine
 10
4010.234369073
 20
3179.286052712055
 30
0.0
 11
4109.229318439099
 21
3278.281002078155
 31
0.0
  0
LINE
  5
B9
330
1F
100
AcDbEntity
  8
sunpou
  6
Continuous
 62
   255
370
    50
100
AcDbLine
 10
4010.234369073
 20
3479.286052712055
 30
0.0
 11
4109.229318439099
 21
3578.281002078155
 31
0.0
  0
LINE
  5
BA
330
1F
100
AcDbEntity
  8
majikiri
  6
Continuous
 62
   255
370
    50
100
AcDbLine
 10
4255.781824065501
 20
6801.283327395055
 30
0.0
 11
4255.781824065501
 21
6726.283327395056
 31
0.0
  0
LINE
  5
BB
330
1F
100
AcDbEntity
  8
kutai
  6
Continuous
 62
     1
370
    50
100
AcDbLine
 10
3953.2848240655
 20
7227.283327395054
 30
0.0
 11
3953.2848240655
 21
6131.283327395055
 31
0.0
  0
LINE
  5
BC
330
1F
100
AcDbEntity
  8
kutai
  6
Continuous
 62
     1
370
    50
100
AcDbLine
 10
4153.2848240655
 20
6131.283327395055
 30
0.0
 11
4153.2848240655
 21
7227.283327395054
 31
0.0
  0
LINE
  5
BD
330
1F
100
AcDbEntity
  8
sunpou
  6
Continuous
 62
   255
370
    50
100
AcDbLine
 10
3569.5348240655
 20
6031.283327395055
 30
0.0
 11
2669.5348240655
 21
6031.283327395055
 31
0.0
  0
LINE
  5
BE
330
1F
100
AcDbEntity
  8
sunpou
  6
Continuous
 62
   255
370
    50
100
AcDbLine
 10
2620.0373493824
 20
6080.780802078154
 30
0.0
 11
2719.0322987485
 21
5981.785852712053
 31
0.0
  0
LINE
  5
BF
330
1F
100
AcDbEntity
  8
sunpou
  6
Continuous
 62
   255
370
    50
100
AcDbLine
 10
2920.0373493824
 20
6080.780802078154
 30
0.0
 11
3019.0322987485
 21
5981.785852712053
 31
0.0
  0
LINE
  5
C0
330
1F
100
AcDbEntity
  8
kutai
  6
Continuous
 62
     1
370
    50
100
AcDbLine
 10
3953.2848240655
 20
6131.283327395055
 30
0.0
 11
3869.5348240655
 21
6131.283327395055
 31
0.0
  0
LINE
  5
C1
330
1F
100
AcDbEntity
  8
majikiri
  6
Continuous
 62
   255
370
    50
100
AcDbLine
 10
4153.2848240655
 20
6726.283327395056
 30
0.0
 11
4255.781824065501
 21
6726.283327395056
 31
0.0
  0
LINE
  5
C2
330
1F
100
AcDbEntity
  8
majikiri
  6
Continuous
 62
   255
370
    50
100
AcDbLine
 10
5116.7878240655
 20
6682.783327395055
 30
0.0
 11
5116.7878240655
 21
6131.283327395055
 31
0.0
  0
LINE
  5
C3
330
1F
100
AcDbEntity
  8
majikiri
  6
Continuous
 62
   255
370
    50
100
AcDbLine
 10
5086.787824065499
 20
6682.783327395055
 30
0.0
 11
5086.787824065499
 21
6131.283327395055
 31
0.0
  0
LINE
  5
C4
330
1F
100
AcDbEntity
  8
majikiri
  6
Continuous
 62
   255
370
    50
100
AcDbLine
 10
5086.787824065499
 20
6682.783327395055
 30
0.0
 11
5116.7878240655
 21
6682.783327395055
 31
0.0
  0
LINE
  5
C5
330
1F
100
AcDbEntity
  8
sunpou
  6
Continuous
 62
   255
370
    50
100
AcDbLine
 10
3569.5348240655
 20
9131.283327395055
 30
0.0
 11
2969.5348240655
 21
9131.283327395055
 31
0.0
  0
TEXT
  5
C6
330
1F
100
AcDbEntity
  8
sunpou
  6
Continuous
 62
   255
370
    25
100
AcDbText
 10
2954.5348240655
 20
7323.935710045355
 30
0.0
 40
200.0
  1
3,100
 50
89.99999999999992
 41
0.5
100
AcDbText
  0
LINE
  5
C7
330
1F
100
AcDbEntity
  8
sunpou
  6
Continuous
 62
   255
370
    50
100
AcDbLine
 10
2920.0373493824
 20
9180.780802078154
 30
0.0
 11
3019.0322987486
 21
9081.785852712055
 31
0.0
  0
LINE
  5
C8
330
1F
100
AcDbEntity
  8
SONOTA
  6
Continuous
 62
   255
370
    50
100
AcDbLine
 10
4060.7848240655
 20
8757.283327395056
 30
0.0
 11
4060.7848240655
 21
7967.283327395055
 31
0.0
  0
LINE
  5
C9
330
1F
100
AcDbEntity
  8
SONOTA
  6
Continuous
 62
   255
370
    50
100
AcDbLine
 10
4088.2848240655
 20
7227.283327395054
 30
0.0
 11
4088.2848240655
 21
8757.283327395056
 31
0.0
  0
LINE
  5
CA
330
1F
100
AcDbEntity
  8
SONOTA
  6
Continuous
 62
   255
370
    50
100
AcDbLine
 10
4018.2848240655
 20
7227.283327395054
 30
0.0
 11
4018.2848240655
 21
8757.283327395056
 31
0.0
  0
LINE
  5
CB
330
1F
100
AcDbEntity
  8
kutai
  6
Continuous
 62
     1
370
    50
100
AcDbLine
 10
4153.2848240655
 20
7227.283327395054
 30
0.0
 11
3953.2848240655
 21
7227.283327395054
 31
0.0
  0
LINE
  5
CC
330
1F
100
AcDbEntity
  8
SONOTA
  6
Continuous
 62
   255
370
    50
100
AcDbLine
 10
4045.7848240655
 20
7227.283327395054
 30
0.0
 11
4045.7848240655
 21
8017.283327395054
 31
0.0
  0
LINE
  5
CD
330
1F
100
AcDbEntity
  8
SONOTA
  6
Continuous
 62
   255
370
    50
100
AcDbLine
 10
4028.2848240655
 20
7992.283327395055
 30
0.0
 11
4078.284824065499
 21
7992.283327395055
 31
0.0
  0
LINE
  5
CE
330
1F
100
AcDbEntity
  8
SONOTA
  6
Continuous
 62
   255
370
    50
100
AcDbLine
 10
4670.781824065501
 20
6801.283327395055
 30
0.0
 11
4463.281824065501
 21
7160.683327395055
 31
0.0
  0
LINE
  5
CF
330
1F
100
AcDbEntity
  8
SONOTA
  6
Continuous
 62
   255
370
    50
100
AcDbLine
 10
4255.781824065501
 20
6801.283327395055
 30
0.0
 11
4463.281824065501
 21
7160.683327395055
 31
0.0
  0
LINE
  5
D0
330
1F
100
AcDbEntity
  8
majikiri
  6
Continuous
 62
   255
370
    50
100
AcDbLine
 10
4153.2848240655
 20
6801.283327395055
 30
0.0
 11
4255.781824065501
 21
6801.283327395055
 31
0.0
  0
LINE
  5
D1
330
1F
100
AcDbEntity
  8
SONOTA
  6
Continuous
 62
   255
370
    50
100
AcDbLine
 10
4670.781824065501
 20
6801.283327395055
 30
0.0
 11
4670.781824065501
 21
6771.283327395054
 31
0.0
  0
LINE
  5
D2
330
1F
100
AcDbEntity
  8
kutai
  6
Continuous
 62
     1
370
    50
100
AcDbLine
 10
3953.2848240655
 20
8757.283327395056
 30
0.0
 11
4153.2848240655
 21
8757.283327395056
 31
0.0
  0
LINE
  5
D3
330
1F
100
AcDbEntity
  8
kutai
  6
Continuous
 62
     1
370
    50
100
AcDbLine
 10
3953.2848240655
 20
8757.283327395056
 30
0.0
 11
3953.2848240655
 21
9293.783327395055
 31
0.0
  0
LINE
  5
D4
330
1F
100
AcDbEntity
  8
kutai
  6
Continuous
 62
     1
370
    50
100
AcDbLine
 10
4153.2848240655
 20
8757.283327395056
 30
0.0
 11
4153.2848240655
 21
9093.783327395055
 31
0.0
  0
TEXT
  5
D5
330
1F
100
AcDbEntity
  8
sunpou
  6
Continuous
 62
   255
370
    25
100
AcDbText
 10
10748.7797198044
 20
3528.783527395055
 30
0.0
 40
200.0
  1
7,000
 41
0.5
100
AcDbText
  0
LINE
  5
D6
330
1F
100
AcDbEntity
  8
sunpou
  6
Continuous
 62
   255
370
    50
100
AcDbLine
 10
7609.731843756101
 20
3528.783527395055
 30
0.0
 11
7609.731843756101
 21
4128.783527395055
 31
0.0
  0
TEXT
  5
D7
330
1F
100
AcDbEntity
  8
sunpou
  6
Continuous
 62
   255
370
    25
100
AcDbText
 10
6460.379188155101
 20
3528.783527395055
 30
0.0
 40
200.0
  1
1,600
 41
0.5
100
AcDbText
  0
LINE
  5
D8
330
1F
100
AcDbEntity
  8
sunpou
  6
Continuous
 62
   255
370
    50
100
AcDbLine
 10
6009.731843756101
 20
3528.783527395055
 30
0.0
 11
6009.731843756101
 21
4128.783527395055
 31
0.0
  0
LINE
  5
D9
330
1F
100
AcDbEntity
  8
sunpou
  6
Continuous
 62
   255
370
    50
100
AcDbLine
 10
5960.234369073001
 20
3479.286052712055
 30
0.0
 11
6059.229318439201
 21
3578.281002078155
 31
0.0
  0
LINE
  5
DA
330
1F
100
AcDbEntity
  8
sunpou
  6
Continuous
 62
   255
370
    50
100
AcDbLine
 10
7560.234369073001
 20
3479.286052712055
 30
0.0
 11
7659.229318439101
 21
3578.281002078155
 31
0.0
  0
TEXT
  5
DB
330
1F
100
AcDbEntity
  8
sunpou
  6
Continuous
 62
   255
370
    25
100
AcDbText
 10
9878.968140075502
 20
3231.398205831155
 30
0.0
 40
200.0
  1
12,750
 41
0.5
100
AcDbText
  0
ARC
  5
DC
330
1F
100
AcDbEntity
  8
SONOTA
  6
Continuous
 62
   255
370
    50
100
AcDbCircle
 10
9592.7748240655
 20
6948.883327395055
 30
0.0
 40
90.50000100000034
100
AcDbArc
 50
210.2471414273197
 51
269.9999999999893
  0
LINE
  5
DD
330
1F
100
AcDbEntity
  8
SONOTA
  6
Continuous
 62
   255
370
    50
100
AcDbLine
 10
9493.181824065501
 20
7006.383827395055
 30
0.0
 11
9545.143824065501
 21
6976.383827395056
 31
0.0
  0
ARC
  5
DE
330
1F
100
AcDbEntity
  8
SONOTA
  6
Continuous
 62
   255
370
    50
100
AcDbCircle
 10
9592.7748240655
 20
6948.883327395155
 30
0.0
 40
90.50000100000034
100
AcDbArc
 50
90.00000000000577
 51
149.9996892303397
  0
LINE
  5
DF
330
1F
100
AcDbEntity
  8
SONOTA
  6
Continuous
 62
   255
370
    50
100
AcDbLine
 10
7650.784824065501
 20
7139.283327395055
 30
0.0
 11
9965.7748240655
 21
7139.283327395055
 31
0.0
  0
LINE
  5
E0
330
1F
100
AcDbEntity
  8
SONOTA
  6
Continuous
 62
   255
370
    50
100
AcDbLine
 10
9797.7748240655
 20
6685.783327395055
 30
0.0
 11
9057.7748240655
 21
6685.783327395055
 31
0.0
  0
LINE
  5
E1
330
1F
100
AcDbEntity
  8
SONOTA
  6
Continuous
 62
   255
370
    50
100
AcDbLine
 10
9797.7748240655
 20
6591.783327395055
 30
0.0
 11
9057.7748240655
 21
6591.783327395055
 31
0.0
  0
LINE
  5
E2
330
1F
100
AcDbEntity
  8
SONOTA
  6
Continuous
 62
   255
370
    50
100
AcDbLine
 10
9088.7748240655
 20
6228.283327395054
 30
0.0
 11
9888.7748240655
 21
6228.283327395054
 31
0.0
  0
LINE
  5
E3
330
1F
100
AcDbEntity
  8
SONOTA
  6
Continuous
 62
   255
370
    50
100
AcDbLine
 10
8973.7748240655
 20
6408.283327395053
 30
0.0
 11
9965.7748240655
 21
6408.283327395053
 31
0.0
  0
LINE
  5
E4
330
1F
100
AcDbEntity
  8
SONOTA
  6
Continuous
 62
   255
370
    50
100
AcDbLine
 10
9057.7748240655
 20
7096.783327395055
 30
0.0
 11
9797.7748240655
 21
7096.783327395055
 31
0.0
  0
LINE
  5
E5
330
1F
100
AcDbEntity
  8
SONOTA
  6
Continuous
 62
   255
370
    50
100
AcDbLine
 10
8195.7848240655
 20
5996.283327395055
 30
0.0
 11
9670.7848240655
 21
5996.283327395055
 31
0.0
  0
LINE
  5
E6
330
1F
100
AcDbEntity
  8
SONOTA
  6
Continuous
 62
   255
370
    50
100
AcDbLine
 10
8195.7848240655
 20
6066.283327395055
 30
0.0
 11
9670.7848240655
 21
6066.283327395055
 31
0.0
  0
LINE
  5
E7
330
1F
100
AcDbEntity
  8
SONOTA
  6
Continuous
 62
   255
370
    50
100
AcDbLine
 10
9670.7848240655
 20
6023.783327395055
 30
0.0
 11
8908.2848240655
 21
6023.783327395055
 31
0.0
  0
LINE
  5
E8
330
1F
100
AcDbEntity
  8
SONOTA
  6
Continuous
 62
   255
370
    50
100
AcDbLine
 10
7708.284824065501
 20
4723.783527395055
 30
0.0
 11
11475.7848240654
 21
4723.783527395055
 31
0.0
  0
LINE
  5
E9
330
1F
100
AcDbEntity
  8
SONOTA
  6
Continuous
 62
   255
370
    50
100
AcDbLine
 10
6043.284824065501
 20
4571.283527395055
 30
0.0
 11
11475.7848240654
 21
4571.283527395055
 31
0.0
  0
LINE
  5
EA
330
1F
100
AcDbEntity
  8
SONOTA
  6
Continuous
 62
   255
370
    50
100
AcDbLine
 10
5983.284824065501
 20
4511.283527395054
 30
0.0
 11
11475.7848240654
 21
4511.283527395054
 31
0.0
  0
LINE
  5
EB
330
1F
100
AcDbEntity
  8
SONOTA
  6
Continuous
 62
   255
370
    50
100
AcDbLine
 10
5900.784824065501
 20
4428.783527395055
 30
0.0
 11
11475.7848240654
 21
4428.783527395055
 31
0.0
  0
ARC
  5
EC
330
1F
100
AcDbEntity
  8
SONOTA
  6
Continuous
 62
   255
370
    50
100
AcDbCircle
 10
9427.7748240655
 20
6788.883327395055
 30
0.0
 40
65.00000100000034
100
AcDbArc
 50
270.0000000000093
 51
329.6962907193498
  0
ARC
  5
ED
330
1F
100
AcDbEntity
  8
SONOTA
  6
Continuous
 62
   255
370
    50
100
AcDbCircle
 10
9427.7748240655
 20
6788.883327395055
 30
0.0
 40
65.00000100000034
100
AcDbArc
 50
329.6962907193498
 51
0.0000000000128271
  0
ARC
  5
EE
330
1F
100
AcDbEntity
  8
SONOTA
  6
Continuous
 62
   255
370
    50
100
AcDbCircle
 10
9427.7748240655
 20
6788.883327395055
 30
0.0
 40
65.00000100000034
100
AcDbArc
 50
210.0295091688796
 51
269.9999999999804
  0
ARC
  5
EF
330
1F
100
AcDbEntity
  8
SONOTA
  6
Continuous
 62
   255
370
    50
100
AcDbCircle
 10
7159.774824065501
 20
6869.283327395054
 30
0.0
 40
1500.000000000001
100
AcDbArc
 50
352.3639999994397
 51
5.861000000150514
  0
LINE
  5
F0
330
1F
100
AcDbEntity
  8
SONOTA
  6
Continuous
 62
   255
370
    50
100
AcDbLine
 10
9057.7748240655
 20
7096.783327395055
 30
0.0
 11
9057.7748240655
 21
6591.783327395055
 31
0.0
  0
ARC
  5
F1
330
1F
100
AcDbEntity
  8
SONOTA
  6
Continuous
 62
   255
370
    50
100
AcDbCircle
 10
9359.7748240655
 20
6869.283327395054
 30
0.0
 40
1500.0
100
AcDbArc
 50
174.13899999985
 51
187.6360000005597
  0
LINE
  5
F2
330
1F
100
AcDbEntity
  8
majikiri
  6
Continuous
 62
   255
370
    50
100
AcDbLine
 10
7650.784824065501
 20
6131.283327395055
 30
0.0
 11
7650.784824065501
 21
8243.783327395056
 31
0.0
  0
LINE
  5
F3
330
1F
100
AcDbEntity
  8
majikiri
  6
Continuous
 62
   255
370
    50
100
AcDbLine
 10
7575.784824065501
 20
8243.783327395056
 30
0.0
 11
7575.784824065501
 21
6131.283327395055
 31
0.0
  0
LINE
  5
F4
330
1F
100
AcDbEntity
  8
majikiri
  6
Continuous
 62
   255
370
    50
100
AcDbLine
 10
5915.781824065501
 20
6801.283327395055
 30
0.0
 11
5915.781824065501
 21
6131.283327395055
 31
0.0
  0
LINE
  5
F5
330
1F
100
AcDbEntity
  8
majikiri
  6
Continuous
 62
   255
370
    50
100
AcDbLine
 10
5990.781824065501
 20
6801.283327395055
 30
0.0
 11
5990.781824065501
 21
6131.283327395055
 31
0.0
  0
LINE
  5
F6
330
1F
100
AcDbEntity
  8
SONOTA
  6
Continuous
 62
   255
370
    50
100
AcDbLine
 10
6195.784824065501
 20
4723.783527395055
 30
0.0
 11
7408.284824065501
 21
4723.783527395055
 31
0.0
  0
LINE
  5
F7
330
1F
100
AcDbEntity
  8
SONOTA
  6
Continuous
 62
   255
370
    50
100
AcDbLine
 10
6485.784824065501
 20
6031.283327395055
 30
0.0
 11
7370.784824065501
 21
6031.283327395055
 31
0.0
  0
LINE
  5
F8
330
1F
100
AcDbEntity
  8
SONOTA
  6
Continuous
 62
   255
370
    50
100
AcDbLine
 10
6485.784824065501
 20
5996.283327395156
 30
0.0
 11
7370.784824065501
 21
5996.283327395055
 31
0.0
  0
LINE
  5
F9
330
1F
100
AcDbEntity
  8
SONOTA
  6
Continuous
 62
   255
370
    50
100
AcDbLine
 10
6485.784824065501
 20
6066.283327395055
 30
0.0
 11
7370.784824065501
 21
6066.283327395055
 31
0.0
  0
LINE
  5
FA
330
1F
100
AcDbEntity
  8
SONOTA
  6
Continuous
 62
   255
370
    50
100
AcDbLine
 10
6195.784824065501
 20
5928.783327395053
 30
0.0
 11
6195.784824065501
 21
4723.783527395055
 31
0.0
  0
LINE
  5
FB
330
1F
100
AcDbEntity
  8
SONOTA
  6
Continuous
 62
   255
370
    50
100
AcDbLine
 10
6043.284824065501
 20
5878.783327395055
 30
0.0
 11
6043.284824065501
 21
4571.283527395055
 31
0.0
  0
LINE
  5
FC
330
1F
100
AcDbEntity
  8
SONOTA
  6
Continuous
 62
   255
370
    50
100
AcDbLine
 10
5983.284824065501
 20
5878.783327395055
 30
0.0
 11
5983.284824065501
 21
4511.283527395054
 31
0.0
  0
LINE
  5
FD
330
1F
100
AcDbEntity
  8
SONOTA
  6
Continuous
 62
   255
370
    50
100
AcDbLine
 10
5900.784824065501
 20
5928.783327395053
 30
0.0
 11
5900.784824065501
 21
4428.783527395055
 31
0.0
  0
LINE
  5
FE
330
1F
100
AcDbEntity
  8
SONOTA
  6
Continuous
 62
   255
370
    50
100
AcDbLine
 10
6043.284824065501
 20
4571.283527395055
 30
0.0
 11
5983.284824065501
 21
4511.283527395054
 31
0.0
  0
LINE
  5
FF
330
1F
100
AcDbEntity
  8
SONOTA
  6
Continuous
 62
   255
370
    50
100
AcDbLine
 10
5983.284824065501
 20
5878.783327395055
 30
0.0
 11
6043.284824065501
 21
5878.783327395055
 31
0.0
  0
LINE
  5
100
330
1F
100
AcDbEntity
  8
kutai
  6
Continuous
 62
     1
370
    50
100
AcDbLine
 10
6485.784824065501
 20
6131.283327395055
 30
0.0
 11
6485.784824065501
 21
5931.283327395055
 31
0.0
  0
CIRCLE
  5
101
330
1F
100
AcDbEntity
  8
SONOTA
  6
Continuous
 62
   255
370
    50
100
AcDbCircle
 10
7558.284824065501
 20
4773.784427395055
 30
0.0
 40
75.0
  0
ARC
  5
102
330
1F
100
AcDbEntity
  8
SONOTA
  6
Continuous
 62
   255
370
    50
100
AcDbCircle
 10
7558.284824065501
 20
4773.784427395055
 30
0.0
 40
150.0
100
AcDbArc
 50
89.99999999999992
 51
179.9999999999998
  0
ARC
  5
103
330
1F
100
AcDbEntity
  8
SONOTA
  6
Continuous
 62
   255
370
    50
100
AcDbCircle
 10
7558.284824065501
 20
4773.784427395055
 30
0.0
 40
150.0
100
AcDbArc
 50
0.0
 51
90.00000000000104
  0
LINE
  5
104
330
1F
100
AcDbEntity
  8
SONOTA
  6
Continuous
 62
   255
370
    50
100
AcDbLine
 10
7408.284824065501
 20
4773.784427395055
 30
0.0
 11
7408.284824065501
 21
4723.783527395055
 31
0.0
  0
CIRCLE
  5
105
330
1F
100
AcDbEntity
  8
SONOTA
  6
Continuous
 62
   255
370
    50
100
AcDbCircle
 10
7558.284824065501
 20
4773.784427395055
 30
0.0
 40
50.0
  0
LINE
  5
106
330
1F
100
AcDbEntity
  8
SONOTA
  6
Continuous
 62
   255
370
    50
100
AcDbLine
 10
7708.284824065501
 20
4773.784427395055
 30
0.0
 11
7708.284824065501
 21
4723.783527395055
 31
0.0
  0
LINE
  5
107
330
1F
100
AcDbEntity
  8
SONOTA
  6
Continuous
 62
   255
370
    50
100
AcDbLine
 10
8195.7848240655
 20
6038.783327395055
 30
0.0
 11
8958.2848240655
 21
6038.783327395055
 31
0.0
  0
LINE
  5
108
330
1F
100
AcDbEntity
  8
kutai
  6
Continuous
 62
     1
370
    50
100
AcDbLine
 10
8195.7848240655
 20
6131.283327395055
 30
0.0
 11
8195.7848240655
 21
5931.283327395055
 31
0.0
  0
LINE
  5
109
330
1F
100
AcDbEntity
  8
kutai
  6
Continuous
 62
     1
370
    50
100
AcDbLine
 10
7370.784824065501
 20
6131.283327395055
 30
0.0
 11
7370.784824065501
 21
5931.283327395055
 31
0.0
  0
LINE
  5
10A
330
1F
100
AcDbEntity
  8
kutai
  6
Continuous
 62
     1
370
    50
100
AcDbLine
 10
7370.784824065501
 20
5931.283327395055
 30
0.0
 11
8195.7848240655
 21
5931.283327395055
 31
0.0
  0
ARC
  5
10B
330
1F
100
AcDbEntity
  8
SONOTA
  6
Continuous
 62
   255
370
    50
100
AcDbCircle
 10
7969.010166900899
 20
6639.720106740654
 30
0.0
 40
85.44158660909125
100
AcDbArc
 50
204.1204181358498
 51
269.3922093998695
  0
LINE
  5
10C
330
1F
100
AcDbEntity
  8
kutai
  6
Continuous
 62
     1
370
    50
100
AcDbLine
 10
7370.784824065501
 20
6131.283327395055
 30
0.0
 11
8195.7848240655
 21
6131.283327395055
 31
0.0
  0
ARC
  5
10D
330
1F
100
AcDbEntity
  8
SONOTA
  6
Continuous
 62
   255
370
    50
100
AcDbCircle
 10
8120.854824065501
 20
6703.183327395156
 30
0.0
 40
249.9999999999991
100
AcDbArc
 50
187.6360000005597
 51
203.1720000001696
  0
LINE
  5
10E
330
1F
100
AcDbEntity
  8
SONOTA
  6
Continuous
 62
   255
370
    50
100
AcDbLine
 10
8933.2848240655
 20
6056.283327395055
 30
0.0
 11
8933.2848240655
 21
6006.283327395055
 31
0.0
  0
ARC
  5
10F
330
1F
100
AcDbEntity
  8
SONOTA
  6
Continuous
 62
   255
370
    50
100
AcDbCircle
 10
8554.974824065501
 20
6636.283327395055
 30
0.0
 40
80.0
100
AcDbArc
 50
278.4329999999096
 51
336.8279999998493
  0
ARC
  5
110
330
1F
100
AcDbEntity
  8
SONOTA
  6
Continuous
 62
   255
370
    50
100
AcDbCircle
 10
8398.6948240655
 20
6703.183327395056
 30
0.0
 40
250.0
100
AcDbArc
 50
336.8279999998294
 51
352.3639999994396
  0
ARC
  5
111
330
1F
100
AcDbEntity
  8
SONOTA
  6
Continuous
 62
   255
370
    50
100
AcDbCircle
 10
8527.854824065502
 20
6819.283327395055
 30
0.0
 40
265.0
100
AcDbArc
 50
269.9999999999998
 51
278.4329999998997
  0
LINE
  5
112
330
1F
100
AcDbEntity
  8
SONOTA
  6
Continuous
 62
   255
370
    50
100
AcDbLine
 10
8973.7748240655
 20
6408.283327395053
 30
0.0
 11
8973.7748240655
 21
6489.283327395055
 31
0.0
  0
LINE
  5
113
330
1F
100
AcDbEntity
  8
SONOTA
  6
Continuous
 62
   255
370
    50
100
AcDbLine
 10
9088.7748240655
 20
6228.283327395054
 30
0.0
 11
9088.7748240655
 21
6408.283327395053
 31
0.0
  0
LINE
  5
114
330
1F
100
AcDbEntity
  8
SONOTA
  6
Continuous
 62
   255
370
    50
100
AcDbLine
 10
9427.7748240655
 20
6751.383327395056
 30
0.0
 11
9427.7748240655
 21
6703.383327395056
 31
0.0
  0
LINE
  5
115
330
1F
100
AcDbEntity
  8
SONOTA
  6
Continuous
 62
   255
370
    50
100
AcDbLine
 10
7575.784824065501
 20
8993.783327395056
 30
0.0
 11
6825.784824065501
 21
8993.783327395056
 31
0.0
  0
ARC
  5
116
330
1F
100
AcDbEntity
  8
SONOTA
  6
Continuous
 62
   255
370
    50
100
AcDbCircle
 10
7575.784824065501
 20
8993.783327395056
 30
0.0
 40
749.9999999999991
100
AcDbArc
 50
179.9999999999998
 51
269.9999999999998
  0
LINE
  5
117
330
1F
100
AcDbEntity
  8
majikiri
  6
Continuous
 62
   255
370
    50
100
AcDbLine
 10
5663.284824065501
 20
9168.783327395055
 30
0.0
 11
7575.784824065501
 21
9168.783327395055
 31
0.0
  0
LINE
  5
118
330
1F
100
AcDbEntity
  8
majikiri
  6
Continuous
 62
   255
370
    50
100
AcDbLine
 10
5663.284824065501
 20
9093.783327395055
 30
0.0
 11
7575.784824065501
 21
9093.783327395055
 31
0.0
  0
LINE
  5
119
330
1F
100
AcDbEntity
  8
SONOTA
  6
Continuous
 62
   255
370
    50
100
AcDbLine
 10
5915.781824065501
 20
6801.283327395055
 30
0.0
 11
5714.531824065501
 21
7149.858327395055
 31
0.0
  0
LINE
  5
11A
330
1F
100
AcDbEntity
  8
SONOTA
  6
Continuous
 62
   255
370
    50
100
AcDbLine
 10
5513.281824065501
 20
6801.283327395055
 30
0.0
 11
5714.531824065501
 21
7149.858327395055
 31
0.0
  0
LINE
  5
11B
330
1F
100
AcDbEntity
  8
SONOTA
  6
Continuous
 62
   255
370
    50
100
AcDbLine
 10
5513.281824065501
 20
6801.283327395055
 30
0.0
 11
5513.281824065501
 21
6771.283327395054
 31
0.0
  0
LINE
  5
11C
330
1F
100
AcDbEntity
  8
majikiri
  6
Continuous
 62
   255
370
    50
100
AcDbLine
 10
5915.781824065501
 20
6801.283327395055
 30
0.0
 11
5990.781824065501
 21
6801.283327395055
 31
0.0
  0
LINE
  5
11D
330
1F
100
AcDbEntity
  8
kutai
  6
Continuous
 62
     1
370
    50
100
AcDbLine
 10
5463.2848240655
 20
9391.283327395055
 30
0.0
 11
5663.284824065501
 21
9391.283327395055
 31
0.0
  0
LINE
  5
11E
330
1F
100
AcDbEntity
  8
kutai
  6
Continuous
 62
     1
370
    50
100
AcDbLine
 10
5463.2848240655
 20
9391.283327395055
 30
0.0
 11
5463.2848240655
 21
9293.783327395055
 31
0.0
  0
LINE
  5
11F
330
1F
100
AcDbEntity
  8
kutai
  6
Continuous
 62
     1
370
    50
100
AcDbLine
 10
5663.284824065501
 20
9391.283327395055
 30
0.0
 11
5663.284824065501
 21
9093.783327395055
 31
0.0
  0
LINE
  5
120
330
1F
100
AcDbEntity
  8
SONOTA
  6
Continuous
 62
   255
370
    50
100
AcDbLine
 10
7947.194824065501
 20
7094.283327395054
 30
0.0
 11
8572.354824065504
 21
7094.283327395054
 31
0.0
  0
ARC
  5
121
330
1F
100
AcDbEntity
  8
SONOTA
  6
Continuous
 62
   255
370
    50
100
AcDbCircle
 10
7947.194824065501
 20
7014.283327395156
 30
0.0
 40
80.0
100
AcDbArc
 50
90.00000000000131
 51
174.1389999998599
  0
LINE
  5
122
330
1F
100
AcDbEntity
  8
majikiri
  6
Continuous
 62
   255
370
    50
100
AcDbLine
 10
7650.784824065501
 20
8243.783327395056
 30
0.0
 11
7575.784824065501
 21
8243.783327395056
 31
0.0
  0
ARC
  5
123
330
1F
100
AcDbEntity
  8
SONOTA
  6
Continuous
 62
   255
370
    50
100
AcDbCircle
 10
8572.354824065504
 20
7014.283327395055
 30
0.0
 40
80.0
100
AcDbArc
 50
5.861000000151288
 51
90.00000000000391
  0
ARC
  5
124
330
1F
100
AcDbEntity
  8
SONOTA
  6
Continuous
 62
   255
370
    50
100
AcDbCircle
 10
9262.7748240655
 20
6948.883327395055
 30
0.0
 40
90.50000100000034
100
AcDbArc
 50
209.9536926407293
 51
269.0819619996397
  0
ARC
  5
125
330
1F
100
AcDbEntity
  8
SONOTA
  6
Continuous
 62
   255
370
    50
100
AcDbCircle
 10
9262.7748240655
 20
6948.883327395155
 30
0.0
 40
90.50000100000034
100
AcDbArc
 50
90.00000000000577
 51
149.9996892303397
  0
ARC
  5
126
330
1F
100
AcDbEntity
  8
SONOTA
  6
Continuous
 62
   255
370
    50
100
AcDbCircle
 10
9262.7748240655
 20
6948.883327395055
 30
0.0
 40
90.50000100000034
100
AcDbArc
 50
149.9996892303201
 51
209.9536926407195
  0
LINE
  5
127
330
1F
100
AcDbEntity
  8
SONOTA
  6
Continuous
 62
   255
370
    50
100
AcDbLine
 10
9163.181824065501
 20
7006.383827395055
 30
0.0
 11
9215.143824065501
 21
6976.383827395056
 31
0.0
  0
ARC
  5
128
330
1F
100
AcDbEntity
  8
SONOTA
  6
Continuous
 62
   255
370
    50
100
AcDbCircle
 10
9592.7748240655
 20
6948.883327395055
 30
0.0
 40
90.50000100000034
100
AcDbArc
 50
149.9996892303201
 51
210.2471414273093
  0
ARC
  5
129
330
1F
100
AcDbEntity
  8
SONOTA
  6
Continuous
 62
   255
370
    50
100
AcDbCircle
 10
9262.7748240655
 20
6948.883327395155
 30
0.0
 40
90.50000100000034
100
AcDbArc
 50
329.5874012144598
 51
0.0
  0
ARC
  5
12A
330
1F
100
AcDbEntity
  8
SONOTA
  6
Continuous
 62
   255
370
    50
100
AcDbCircle
 10
9262.7748240655
 20
6948.883327395055
 30
0.0
 40
90.50000100000034
100
AcDbArc
 50
0.0000000000213047
 51
30.00273509208465
  0
LINE
  5
12B
330
1F
100
AcDbEntity
  8
SONOTA
  6
Continuous
 62
   255
370
    50
100
AcDbLine
 10
9310.406824065502
 20
6976.383827395056
 30
0.0
 11
9362.364414777801
 21
7006.389730845955
 31
0.0
  0
LINE
  5
12C
330
1F
100
AcDbEntity
  8
SONOTA
  6
Continuous
 62
   255
370
    50
100
AcDbLine
 10
9460.250824065501
 20
6807.633827395056
 30
0.0
 11
9501.8198240655
 21
6831.633827395058
 31
0.0
  0
LINE
  5
12D
330
1F
100
AcDbEntity
  8
SONOTA
  6
Continuous
 62
   255
370
    50
100
AcDbLine
 10
9395.298824065501
 20
6807.633827395056
 30
0.0
 11
9353.7326015163
 21
6831.638636770455
 31
0.0
  0
ARC
  5
12E
330
1F
100
AcDbEntity
  8
SONOTA
  6
Continuous
 62
   255
370
    50
100
AcDbCircle
 10
9427.7748240655
 20
6788.883327395155
 30
0.0
 40
65.00000100000034
100
AcDbArc
 50
0.0
 51
30.00041621149981
  0
ARC
  5
12F
330
1F
100
AcDbEntity
  8
SONOTA
  6
Continuous
 62
   255
370
    50
100
AcDbCircle
 10
9427.7748240655
 20
6788.883327395055
 30
0.0
 40
65.00000100000034
100
AcDbArc
 50
149.9967790943699
 51
210.0295091688695
  0
ARC
  5
130
330
1F
100
AcDbEntity
  8
SONOTA
  6
Continuous
 62
   255
370
    50
100
AcDbCircle
 10
9427.7748240655
 20
6788.883327395055
 30
0.0
 40
65.00000100000034
100
AcDbArc
 50
30.00041621152497
 51
89.99999999997917
  0
ARC
  5
131
330
1F
100
AcDbEntity
  8
SONOTA
  6
Continuous
 62
   255
370
    50
100
AcDbCircle
 10
9427.7748240655
 20
6788.883327395055
 30
0.0
 40
65.00000100000034
100
AcDbArc
 50
89.99999999998558
 51
149.9967790943506
  0
LINE
  5
132
330
1F
100
AcDbEntity
  8
SONOTA
  6
Continuous
 62
   255
370
    50
100
AcDbLine
 10
9262.7748240655
 20
6893.883327395056
 30
0.0
 11
9262.7748240655
 21
6833.883327395054
 31
0.0
  0
ARC
  5
133
330
1F
100
AcDbEntity
  8
SONOTA
  6
Continuous
 62
   255
370
    50
100
AcDbCircle
 10
9262.7748240655
 20
6948.883327395155
 30
0.0
 40
90.50000100000034
100
AcDbArc
 50
270.9180380003597
 51
329.5874012144695
  0
ARC
  5
134
330
1F
100
AcDbEntity
  8
SONOTA
  6
Continuous
 62
   255
370
    50
100
AcDbCircle
 10
9262.7748240655
 20
6948.883327395055
 30
0.0
 40
90.50000100000034
100
AcDbArc
 50
30.00273509206715
 51
90.00000000001383
  0
LINE
  5
135
330
1F
100
AcDbEntity
  8
majikiri
  6
Continuous
 62
   255
370
    50
100
AcDbLine
 10
7575.784824065501
 20
8993.783327395056
 30
0.0
 11
7575.784824065501
 21
9093.783327395055
 31
0.0
  0
LINE
  5
136
330
1F
100
AcDbEntity
  8
majikiri
  6
Continuous
 62
   255
370
    50
100
AcDbLine
 10
7650.784824065501
 20
8993.783327395056
 30
0.0
 11
7650.784824065501
 21
9456.283327395055
 31
0.0
  0
LINE
  5
137
330
1F
100
AcDbEntity
  8
majikiri
  6
Continuous
 62
   255
370
    50
100
AcDbLine
 10
7650.784824065501
 20
8993.783327395056
 30
0.0
 11
7575.784824065501
 21
8993.783327395056
 31
0.0
  0
LINE
  5
138
330
1F
100
AcDbEntity
  8
majikiri
  6
Continuous
 62
   255
370
    50
100
AcDbLine
 10
7650.784824065501
 20
9017.783327395055
 30
0.0
 11
7650.784824065501
 21
9017.804327395055
 31
0.0
  0
LINE
  5
139
330
1F
100
AcDbEntity
  8
majikiri
  6
Continuous
 62
   255
370
    50
100
AcDbLine
 10
7575.784824065501
 20
9168.783327395055
 30
0.0
 11
7575.784824065501
 21
9456.283327395055
 31
0.0
  0
LINE
  5
13A
330
1F
100
AcDbEntity
  8
majikiri
  6
Continuous
 62
   255
370
    50
100
AcDbLine
 10
7575.784824065501
 20
9456.283327395055
 30
0.0
 11
7650.784824065501
 21
9456.283327395055
 31
0.0
  0
LINE
  5
13B
330
1F
100
AcDbEntity
  8
SONOTA
  6
Continuous
 62
   255
370
    50
100
AcDbLine
 10
9965.7748240655
 20
7139.283327395055
 30
0.0
 11
9965.7748240655
 21
6408.283327395053
 31
0.0
  0
LINE
  5
13C
330
1F
100
AcDbEntity
  8
SONOTA
  6
Continuous
 62
   255
370
    50
100
AcDbLine
 10
9884.7748240655
 20
6489.283327395055
 30
0.0
 11
9884.7748240655
 21
7139.283327395055
 31
0.0
  0
LINE
  5
13D
330
1F
100
AcDbEntity
  8
SONOTA
  6
Continuous
 62
   255
370
    50
100
AcDbLine
 10
9797.7748240655
 20
7096.783327395055
 30
0.0
 11
9797.7748240655
 21
6591.783327395055
 31
0.0
  0
ARC
  5
13E
330
1F
100
AcDbEntity
  8
SONOTA
  6
Continuous
 62
   255
370
    50
100
AcDbCircle
 10
11475.7848240654
 20
5928.783327395053
 30
0.0
 40
1357.5
100
AcDbArc
 50
269.9999999999998
 51
357.8891799999396
  0
ARC
  5
13F
330
1F
100
AcDbEntity
  8
SONOTA
  6
Continuous
 62
   255
370
    50
100
AcDbCircle
 10
11475.7848240654
 20
5928.783327395053
 30
0.0
 40
1417.5
100
AcDbArc
 50
269.9999999999998
 51
357.9785599999395
  0
ARC
  5
140
330
1F
100
AcDbEntity
  8
SONOTA
  6
Continuous
 62
   255
370
    50
100
AcDbCircle
 10
11475.7848240654
 20
5928.783327395053
 30
0.0
 40
1205.0
100
AcDbArc
 50
269.9999999999998
 51
0.1188709971315261
  0
ARC
  5
141
330
1F
100
AcDbEntity
  8
SONOTA
  6
Continuous
 62
   255
370
    50
100
AcDbCircle
 10
12540.7848240654
 20
5996.283327395055
 30
0.0
 40
825.0
100
AcDbArc
 50
179.9999999999998
 51
254.9999999999496
  0
ARC
  5
142
330
1F
100
AcDbEntity
  8
SONOTA
  6
Continuous
 62
   255
370
    50
100
AcDbCircle
 10
11475.7848240654
 20
5928.783327395053
 30
0.0
 40
1500.0
100
AcDbArc
 50
269.9999999999998
 51
0.0954930100843534
  0
LINE
  5
143
330
1F
100
AcDbEntity
  8
kutai
  6
Continuous
 62
     1
370
    50
100
AcDbLine
 10
10875.7648240654
 20
6131.283327395055
 30
0.0
 11
11715.7848240654
 21
6131.283327395055
 31
0.0
  0
LINE
  5
144
330
1F
100
AcDbEntity
  8
kutai
  6
Continuous
 62
     1
370
    50
100
AcDbLine
 10
9670.7848240655
 20
5931.283327395055
 30
0.0
 11
11715.7848240654
 21
5931.283327395055
 31
0.0
  0
LINE
  5
145
330
1F
100
AcDbEntity
  8
kutai
  6
Continuous
 62
     1
370
    50
100
AcDbLine
 10
10875.7848240654
 20
6751.283327395055
 30
0.0
 11
10050.7848240654
 21
6751.283327395055
 31
0.0
  0
LINE
  5
146
330
1F
100
AcDbEntity
  8
kutai
  6
Continuous
 62
     1
370
    50
100
AcDbLine
 10
9670.7848240655
 20
6131.283327395055
 30
0.0
 11
9670.7848240655
 21
5931.283327395055
 31
0.0
  0
LINE
  5
147
330
1F
100
AcDbEntity
  8
SONOTA
  6
Continuous
 62
   255
370
    50
100
AcDbLine
 10
9888.7748240655
 20
6228.283327395054
 30
0.0
 11
9888.7748240655
 21
6408.283327395053
 31
0.0
  0
LINE
  5
148
330
1F
100
AcDbEntity
  8
kutai
  6
Continuous
 62
     1
370
    50
100
AcDbLine
 10
10050.7848240654
 20
6751.283327395055
 30
0.0
 11
10050.7848240654
 21
6131.283327395055
 31
0.0
  0
LINE
  5
149
330
1F
100
AcDbEntity
  8
kutai
  6
Continuous
 62
     1
370
    50
100
AcDbLine
 10
9670.7848240655
 20
6131.283327395055
 30
0.0
 11
10050.7648240654
 21
6131.283327395055
 31
0.0
  0
LINE
  5
14A
330
1F
100
AcDbEntity
  8
kutai
  6
Continuous
 62
     1
370
    50
100
AcDbLine
 10
10875.7848240654
 20
6131.283327395055
 30
0.0
 11
10875.7848240654
 21
6751.283327395055
 31
0.0
  0
LINE
  5
14B
330
1F
100
AcDbEntity
  8
SONOTA
  6
Continuous
 62
   255
370
    50
100
AcDbLine
 10
12540.7848240654
 20
5996.283327395055
 30
0.0
 11
12327.2591118564
 21
5199.394520706655
 31
0.0
  0
LINE
  5
14C
330
1F
100
AcDbEntity
  8
kutai
  6
Continuous
 62
     1
370
    50
100
AcDbLine
 10
12540.7848240654
 20
6131.283327395055
 30
0.0
 11
13608.2848240654
 21
6131.283327395055
 31
0.0
  0
LINE
  5
14D
330
1F
100
AcDbEntity
  8
kutai
  6
Continuous
 62
     1
370
    50
100
AcDbLine
 10
12540.7848240654
 20
5931.283327395055
 30
0.0
 11
13339.1729356114
 21
5931.283327395055
 31
0.0
  0
LINE
  5
14E
330
1F
100
AcDbEntity
  8
kutai
  6
Continuous
 62
     1
370
    50
100
AcDbLine
 10
12540.7848240654
 20
6131.283327395055
 30
0.0
 11
12540.7848240654
 21
5931.283327395055
 31
0.0
  0
LINE
  5
14F
330
1F
100
AcDbEntity
  8
kutai
  6
Continuous
 62
     1
370
    50
100
AcDbLine
 10
11715.7848240654
 20
6131.283327395055
 30
0.0
 11
11715.7848240654
 21
5931.283327395055
 31
0.0
  0
LINE
  5
150
330
1F
100
AcDbEntity
  8
SONOTA
  6
Continuous
 62
   255
370
    50
100
AcDbLine
 10
11715.7848240654
 20
6066.283327395055
 30
0.0
 11
12540.7848240654
 21
6066.283327395055
 31
0.0
  0
LINE
  5
151
330
1F
100
AcDbEntity
  8
SONOTA
  6
Continuous
 62
   255
370
    50
100
AcDbLine
 10
11715.7848240654
 20
5996.283327395055
 30
0.0
 11
12540.7848240654
 21
5996.283327395055
 31
0.0
  0
LINE
  5
152
330
1F
100
AcDbEntity
  8
kutai
  6
Continuous
 62
     1
370
    50
100
AcDbLine
 10
13608.2848240654
 20
5726.283327395055
 30
0.0
 11
13608.2848240654
 21
6131.283327395055
 31
0.0
  0
LINE
  5
153
330
1F
100
AcDbEntity
  8
SONOTA
  6
Continuous
 62
   255
370
    50
100
AcDbLine
 10
12832.3638240654
 20
5878.783327395055
 30
0.0
 11
12892.4028240654
 21
5878.783327395055
 31
0.0
  0
LINE
  5
154
330
1F
100
AcDbEntity
  8
kutai
  6
Continuous
 62
     1
370
    50
100
AcDbLine
 10
13418.2848240654
 20
5726.283327395055
 30
0.0
 11
13608.2848240654
 21
5726.283327395055
 31
0.0
  0
LINE
  5
155
330
1F
100
AcDbEntity
  8
kutai
  6
Continuous
 62
     1
370
    50
100
AcDbLine
 10
13339.1729356114
 20
5931.283327395055
 30
0.0
 11
13418.2848240654
 21
5726.283327395055
 31
0.0
  0
ARC
  5
156
330
1F
100
AcDbEntity
  8
SONOTA
  6
Continuous
 62
   255
370
    50
100
AcDbCircle
 10
9592.7748240655
 20
6948.883327395055
 30
0.0
 40
90.50000100000034
100
AcDbArc
 50
330.1804407402796
 51
0.0000000000097887
  0
ARC
  5
157
330
1F
100
AcDbEntity
  8
SONOTA
  6
Continuous
 62
   255
370
    50
100
AcDbCircle
 10
9592.7748240655
 20
6948.883327395155
 30
0.0
 40
90.50000100000034
100
AcDbArc
 50
269.9999999999998
 51
330.18044074026
  0
ARC
  5
158
330
1F
100
AcDbEntity
  8
SONOTA
  6
Continuous
 62
   255
370
    50
100
AcDbCircle
 10
9592.7748240655
 20
6948.883327395055
 30
0.0
 40
90.50000100000034
100
AcDbArc
 50
30.00018150950897
 51
90.00000000001383
  0
LINE
  5
159
330
1F
100
AcDbEntity
  8
SONOTA
  6
Continuous
 62
   255
370
    50
100
AcDbLine
 10
9640.406824065502
 20
6976.383827395056
 30
0.0
 11
9692.364414777801
 21
7006.389730845955
 31
0.0
  0
ARC
  5
15A
330
1F
100
AcDbEntity
  8
SONOTA
  6
Continuous
 62
   255
370
    50
100
AcDbCircle
 10
9592.7748240655
 20
6948.883327395155
 30
0.0
 40
90.50000100000034
100
AcDbArc
 50
0.0
 51
30.00018150947805
  0
LINE
  5
15B
330
1F
100
AcDbEntity
  8
SONOTA
  6
Continuous
 62
   255
370
    50
100
AcDbLine
 10
9592.7748240655
 20
6893.883327395056
 30
0.0
 11
9592.7748240655
 21
6833.883327395054
 31
0.0
  0
LINE
  5
15C
330
1F
100
AcDbEntity
  8
kutai
  6
Continuous
 62
     1
370
    50
100
AcDbLine
 10
4843.2848240655
 20
12756.28332739466
 30
0.0
 11
5463.2848240655
 21
12756.28332739466
 31
0.0
  0
LINE
  5
15D
330
1F
100
AcDbEntity
  8
kutai
  6
Continuous
 62
     1
370
    50
100
AcDbLine
 10
4843.2848240655
 20
15246.28332739466
 30
0.0
 11
5463.2848240655
 21
15246.28332739466
 31
0.0
  0
LINE
  5
15E
330
1F
100
AcDbEntity
  8
kutai
  6
Continuous
 62
     1
370
    50
100
AcDbLine
 10
4843.2848240655
 20
12756.28332739466
 30
0.0
 11
4843.2848240655
 21
12926.28332739466
 31
0.0
  0
LINE
  5
15F
330
1F
100
AcDbEntity
  8
sunpou
  6
Continuous
 62
   255
370
    50
100
AcDbLine
 10
3569.5348240655
 20
10631.28332739465
 30
0.0
 11
2969.5348240655
 21
10631.28332739465
 31
0.0
  0
LINE
  5
160
330
1F
100
AcDbEntity
  8
sunpou
  6
Continuous
 62
   255
370
    50
100
AcDbLine
 10
2920.0373493824
 20
10680.78080207865
 30
0.0
 11
3019.0322987486
 21
10581.78585271166
 31
0.0
  0
TEXT
  5
161
330
1F
100
AcDbEntity
  8
sunpou
  6
Continuous
 62
   255
370
    25
100
AcDbText
 10
2653.525837288
 20
9837.821736323554
 30
0.0
 40
200.0
  1
8,450
 50
89.99999999999992
 41
0.5
100
AcDbText
  0
TEXT
  5
162
330
1F
100
AcDbEntity
  8
sunpou
  6
Continuous
 62
   255
370
    25
100
AcDbText
 10
2954.5348240655
 20
11867.12045632065
 30
0.0
 40
200.0
  1
3,150
 50
89.99999999999992
 41
0.5
100
AcDbText
  0
LINE
  5
163
330
1F
100
AcDbEntity
  8
sunpou
  6
Continuous
 62
   255
370
    50
100
AcDbLine
 10
3569.5348240655
 20
13781.28332739466
 30
0.0
 11
2969.5348240655
 21
13781.28332739466
 31
0.0
  0
LINE
  5
164
330
1F
100
AcDbEntity
  8
sunpou
  6
Continuous
 62
   255
370
    50
100
AcDbLine
 10
3569.5348240655
 20
14481.28332739466
 30
0.0
 11
2669.5348240655
 21
14481.28332739466
 31
0.0
  0
TEXT
  5
165
330
1F
100
AcDbEntity
  8
sunpou
  6
Continuous
 62
   255
370
    25
100
AcDbText
 10
2954.5348240655
 20
13886.92264760766
 30
0.0
 40
200.0
  1
700
 50
89.99999999999992
 41
0.5
100
AcDbText
  0
LINE
  5
166
330
1F
100
AcDbEntity
  8
sunpou
  6
Continuous
 62
   255
370
    50
100
AcDbLine
 10
2920.0373493824
 20
13830.78080207865
 30
0.0
 11
3019.0322987486
 21
13731.78585271166
 31
0.0
  0
LINE
  5
167
330
1F
100
AcDbEntity
  8
sunpou
  6
Continuous
 62
   255
370
    50
100
AcDbLine
 10
2620.0373493824
 20
14530.78080207865
 30
0.0
 11
2719.0322987486
 21
14431.78585271166
 31
0.0
  0
LINE
  5
168
330
1F
100
AcDbEntity
  8
sunpou
  6
Continuous
 62
   255
370
    50
100
AcDbLine
 10
2920.0373493824
 20
14530.78080207865
 30
0.0
 11
3019.0322987486
 21
14431.78585271166
 31
0.0
  0
LINE
  5
169
330
1F
100
AcDbEntity
  8
SONOTA
  6
Continuous
 62
   255
370
    50
100
AcDbLine
 10
4883.284824064001
 20
15076.28332739466
 30
0.0
 11
4883.284824064001
 21
14226.28332739466
 31
0.0
  0
LINE
  5
16A
330
1F
100
AcDbEntity
  8
SONOTA
  6
Continuous
 62
   255
370
    50
100
AcDbLine
 10
4843.2848240655
 20
15076.28332739466
 30
0.0
 11
4843.2848240655
 21
14226.28332739466
 31
0.0
  0
ARC
  5
16B
330
1F
100
AcDbEntity
  8
SONOTA
  6
Continuous
 62
   255
370
    50
100
AcDbCircle
 10
4843.284824064001
 20
14226.28332739466
 30
0.0
 40
425.0
100
AcDbArc
 50
89.99999999979205
 51
179.9999999999998
  0
LINE
  5
16C
330
1F
100
AcDbEntity
  8
SONOTA
  6
Continuous
 62
   255
370
    50
100
AcDbLine
 10
4883.284824064001
 20
14076.28332739466
 30
0.0
 11
4883.284824064001
 21
12926.28332739466
 31
0.0
  0
LINE
  5
16D
330
1F
100
AcDbEntity
  8
SONOTA
  6
Continuous
 62
   255
370
    50
100
AcDbLine
 10
4843.2848240655
 20
14076.28332739466
 30
0.0
 11
4843.2848240655
 21
12926.28332739466
 31
0.0
  0
ARC
  5
16E
330
1F
100
AcDbEntity
  8
SONOTA
  6
Continuous
 62
   255
370
    50
100
AcDbCircle
 10
4843.2848240655
 20
14076.28332739466
 30
0.0
 40
575.0
100
AcDbArc
 50
179.9999999999998
 51
269.9999999999998
  0
ARC
  5
16F
330
1F
100
AcDbEntity
  8
SONOTA
  6
Continuous
 62
   255
370
    50
100
AcDbCircle
 10
4843.2848240655
 20
12926.28332739466
 30
0.0
 40
575.0
100
AcDbArc
 50
89.99999999999992
 51
179.9999999999998
  0
LINE
  5
170
330
1F
100
AcDbEntity
  8
SONOTA
  6
Continuous
 62
   255
370
    50
100
AcDbLine
 10
4843.2848240655
 20
13501.28332739466
 30
0.0
 11
4883.284824064001
 21
13501.28332739466
 31
0.0
  0
LINE
  5
171
330
1F
100
AcDbEntity
  8
SONOTA
  6
Continuous
 62
   255
370
    50
100
AcDbLine
 10
4843.2848240655
 20
13501.28332739466
 30
0.0
 11
4883.284824064001
 21
13501.28332739466
 31
0.0
  0
LINE
  5
172
330
1F
100
AcDbEntity
  8
SONOTA
  6
Continuous
 62
   255
370
    50
100
AcDbLine
 10
4843.2848240655
 20
14226.28332739466
 30
0.0
 11
4843.2848240655
 21
14076.28332739466
 31
0.0
  0
LINE
  5
173
330
1F
100
AcDbEntity
  8
kutai
  6
Continuous
 62
     1
370
    50
100
AcDbLine
 10
4843.2848240655
 20
15246.28332739466
 30
0.0
 11
4843.2848240655
 21
15076.28332739466
 31
0.0
  0
ARC
  5
174
330
1F
100
AcDbEntity
  8
SONOTA
  6
Continuous
 62
   255
370
    50
100
AcDbCircle
 10
4843.284824063901
 20
15076.28332739466
 30
0.0
 40
425.0
100
AcDbArc
 50
179.9999999999998
 51
270.0000000002096
  0
LINE
  5
175
330
1F
100
AcDbEntity
  8
SONOTA
  6
Continuous
 62
   255
370
    50
100
AcDbLine
 10
4843.2848240655
 20
14651.28332739466
 30
0.0
 11
4883.284824064001
 21
14651.28332739466
 31
0.0
  0
LINE
  5
176
330
1F
100
AcDbEntity
  8
sunpou
  6
Continuous
 62
   255
370
    50
100
AcDbLine
 10
11613.2848240654
 20
16551.28332739466
 30
0.0
 11
11613.2848240654
 21
15951.28332739466
 31
0.0
  0
LINE
  5
177
330
1F
100
AcDbEntity
  8
sunpou
  6
Continuous
 62
   255
370
    50
100
AcDbLine
 10
10963.2848240654
 20
16551.28332739466
 30
0.0
 11
10963.2848240654
 21
15951.28332739466
 31
0.0
  0
LINE
  5
178
330
1F
100
AcDbEntity
  8
sunpou
  6
Continuous
 62
   255
370
    50
100
AcDbLine
 10
8513.2848240655
 20
16551.28332739466
 30
0.0
 11
8513.2848240655
 21
15951.28332739466
 31
0.0
  0
LINE
  5
179
330
1F
100
AcDbEntity
  8
sunpou
  6
Continuous
 62
   255
370
    50
100
AcDbLine
 10
5563.284824065501
 20
16851.28332739466
 30
0.0
 11
5563.284824065501
 21
15951.28332739466
 31
0.0
  0
ARC
  5
17A
330
1F
100
AcDbEntity
  8
SONOTA
  6
Continuous
 62
   255
370
    50
100
AcDbCircle
 10
9971.113781386999
 20
11866.12732739466
 30
0.0
 40
2000.0
100
AcDbArc
 50
98.53875700010599
 51
103.18098999983
  0
ARC
  5
17B
330
1F
100
AcDbEntity
  8
SONOTA
  6
Continuous
 62
   255
370
    50
100
AcDbCircle
 10
9322.079781387
 20
15212.04232739466
 30
0.0
 40
1500.0
100
AcDbArc
 50
273.1581699999697
 51
281.7577199998696
  0
ARC
  5
17C
330
1F
100
AcDbEntity
  8
SONOTA
  6
Continuous
 62
   255
370
    50
100
AcDbCircle
 10
9294.533781386999
 20
8483.053327395055
 30
0.0
 40
5800.0
100
AcDbArc
 50
85.06642100012599
 51
87.89482100002199
  0
ARC
  5
17D
330
1F
100
AcDbEntity
  8
SONOTA
  6
Continuous
 62
   255
370
    50
100
AcDbCircle
 10
9294.533781386999
 20
6874.341927395055
 30
0.0
 40
7467.6489
100
AcDbArc
 50
86.07527099988199
 51
89.99999999999992
  0
LINE
  5
17E
330
1F
100
AcDbEntity
  8
SONOTA
  6
Continuous
 62
   255
370
    50
100
AcDbLine
 10
10038.3588240654
 20
12282.22432739466
 30
0.0
 11
9278.358824065501
 21
12282.22432739466
 31
0.0
  0
LINE
  5
17F
330
1F
100
AcDbEntity
  8
majikiri
  6
Continuous
 62
   255
370
    50
100
AcDbLine
 10
10038.2848240654
 20
12262.22432739466
 30
0.0
 11
8550.7848240655
 21
12262.22432739466
 31
0.0
  0
ARC
  5
180
330
1F
100
AcDbEntity
  8
SONOTA
  6
Continuous
 62
   255
370
    50
100
AcDbCircle
 10
10035.0589659404
 20
12283.58883129765
 30
0.0
 40
756.7013721306994
100
AcDbArc
 50
89.75574431009603
 51
180.1033173191396
  0
LINE
  5
181
330
1F
100
AcDbEntity
  8
SONOTA
  6
Continuous
 62
   255
370
    50
100
AcDbLine
 10
8550.7848240655
 20
13616.28332739466
 30
0.0
 11
10038.2848240654
 21
13616.28332739466
 31
0.0
  0
LINE
  5
182
330
1F
100
AcDbEntity
  8
majikiri
  6
Continuous
 62
   255
370
    50
100
AcDbLine
 10
9563.7848240655
 20
11267.78332739466
 30
0.0
 11
9513.7848240655
 21
11267.78332739466
 31
0.0
  0
LINE
  5
183
330
1F
100
AcDbEntity
  8
majikiri
  6
Continuous
 62
   255
370
    50
100
AcDbLine
 10
8438.782324065502
 20
10593.78332739465
 30
0.0
 11
9978.290824065502
 21
10593.78332739465
 31
0.0
  0
LINE
  5
184
330
1F
100
AcDbEntity
  8
majikiri
  6
Continuous
 62
   255
370
    50
100
AcDbLine
 10
8550.7848240655
 20
10668.78332739465
 30
0.0
 11
9978.290824065502
 21
10668.78332739465
 31
0.0
  0
LINE
  5
185
330
1F
100
AcDbEntity
  8
kutai
  6
Continuous
 62
     1
370
    50
100
AcDbLine
 10
5663.284824065501
 20
14412.28332739466
 30
0.0
 11
10038.2848240654
 21
14412.28332739466
 31
0.0
  0
ARC
  5
186
330
1F
100
AcDbEntity
  8
SONOTA
  6
Continuous
 62
   255
370
    50
100
AcDbCircle
 10
8339.495824065501
 20
12763.72432739466
 30
0.0
 40
506.1893299999993
100
AcDbArc
 50
316.7544800000598
 51
43.24549799991694
  0
LINE
  5
187
330
1F
100
AcDbEntity
  8
majikiri
  6
Continuous
 62
   255
370
    50
100
AcDbLine
 10
8550.7848240655
 20
12262.22432739466
 30
0.0
 11
8550.7848240655
 21
14412.28332739466
 31
0.0
  0
LINE
  5
188
330
1F
100
AcDbEntity
  8
majikiri
  6
Continuous
 62
   255
370
    50
100
AcDbLine
 10
8475.7848240655
 20
10668.78332739465
 30
0.0
 11
8475.7848240655
 21
13743.78332739466
 31
0.0
  0
LINE
  5
189
330
1F
100
AcDbEntity
  8
kutai
  6
Continuous
 62
     1
370
    50
100
AcDbLine
 10
5663.284824065501
 20
12296.28332739466
 30
0.0
 11
5663.284824065501
 21
14412.28332739466
 31
0.0
  0
LINE
  5
18A
330
1F
100
AcDbEntity
  8
majikiri
  6
Continuous
 62
   255
370
    50
100
AcDbLine
 10
5663.284824065501
 20
10668.78332739465
 30
0.0
 11
7690.782324065501
 21
10668.78332739465
 31
0.0
  0
LINE
  5
18B
330
1F
100
AcDbEntity
  8
majikiri
  6
Continuous
 62
   255
370
    50
100
AcDbLine
 10
5663.284824065501
 20
10593.78332739465
 30
0.0
 11
7575.784824065501
 21
10593.78332739465
 31
0.0
  0
LINE
  5
18C
330
1F
100
AcDbEntity
  8
SONOTA
  6
Continuous
 62
   255
370
    50
100
AcDbLine
 10
5555.784824065501
 20
10766.28332739465
 30
0.0
 11
5555.784824065501
 21
11556.28332739466
 31
0.0
  0
LINE
  5
18D
330
1F
100
AcDbEntity
  8
SONOTA
  6
Continuous
 62
   255
370
    50
100
AcDbLine
 10
5528.284824065501
 20
10766.28332739465
 30
0.0
 11
5528.284824065501
 21
12296.28332739466
 31
0.0
  0
LINE
  5
18E
330
1F
100
AcDbEntity
  8
SONOTA
  6
Continuous
 62
   255
370
    50
100
AcDbLine
 10
5598.284824065501
 20
10766.28332739465
 30
0.0
 11
5598.284824065501
 21
12296.28332739466
 31
0.0
  0
LINE
  5
18F
330
1F
100
AcDbEntity
  8
SONOTA
  6
Continuous
 62
   255
370
    50
100
AcDbLine
 10
5663.284824065501
 20
10244.78332739465
 30
0.0
 11
6613.284824065501
 21
10244.78332739465
 31
0.0
  0
LINE
  5
190
330
1F
100
AcDbEntity
  8
kutai
  6
Continuous
 62
     1
370
    50
100
AcDbLine
 10
5463.2848240655
 20
10766.28332739465
 30
0.0
 11
5463.2848240655
 21
10211.28332739465
 31
0.0
  0
LINE
  5
191
330
1F
100
AcDbEntity
  8
kutai
  6
Continuous
 62
     1
370
    50
100
AcDbLine
 10
5663.284824065501
 20
10211.28332739465
 30
0.0
 11
5663.284824065501
 21
10766.28332739465
 31
0.0
  0
LINE
  5
192
330
1F
100
AcDbEntity
  8
kutai
  6
Continuous
 62
     1
370
    50
100
AcDbLine
 10
5463.2848240655
 20
10211.28332739465
 30
0.0
 11
5663.284824065501
 21
10211.28332739465
 31
0.0
  0
LINE
  5
193
330
1F
100
AcDbEntity
  8
kutai
  6
Continuous
 62
     1
370
    50
100
AcDbLine
 10
5463.2848240655
 20
10766.28332739465
 30
0.0
 11
5663.284824065501
 21
10766.28332739465
 31
0.0
  0
LINE
  5
194
330
1F
100
AcDbEntity
  8
SONOTA
  6
Continuous
 62
   255
370
    50
100
AcDbLine
 10
5570.784824065501
 20
12296.28332739466
 30
0.0
 11
5570.784824065501
 21
11506.28332739466
 31
0.0
  0
LINE
  5
195
330
1F
100
AcDbEntity
  8
SONOTA
  6
Continuous
 62
   255
370
    50
100
AcDbLine
 10
5538.284824065501
 20
11531.28332739466
 30
0.0
 11
5588.284824065501
 21
11531.28332739466
 31
0.0
  0
LINE
  5
196
330
1F
100
AcDbEntity
  8
kutai
  6
Continuous
 62
     1
370
    50
100
AcDbLine
 10
5463.2848240655
 20
12296.28332739466
 30
0.0
 11
5463.2848240655
 21
12756.28332739466
 31
0.0
  0
LINE
  5
197
330
1F
100
AcDbEntity
  8
kutai
  6
Continuous
 62
     1
370
    50
100
AcDbLine
 10
5463.2848240655
 20
12296.28332739466
 30
0.0
 11
5663.284824065501
 21
12296.28332739466
 31
0.0
  0
LINE
  5
198
330
1F
100
AcDbEntity
  8
SONOTA
  6
Continuous
 62
   255
370
    50
100
AcDbLine
 10
8438.782324065502
 20
10668.78332739465
 30
0.0
 11
8438.782324065502
 21
11418.78332739466
 31
0.0
  0
ARC
  5
199
330
1F
100
AcDbEntity
  8
SONOTA
  6
Continuous
 62
   255
370
    50
100
AcDbCircle
 10
8437.3726542202
 20
10672.18657145365
 30
0.0
 40
746.5980867579201
100
AcDbArc
 50
89.89181839323697
 51
180.2611742515797
  0
LINE
  5
19A
330
1F
100
AcDbEntity
  8
majikiri
  6
Continuous
 62
   255
370
    50
100
AcDbLine
 10
9513.7848240655
 20
11267.78332739466
 30
0.0
 11
9513.7848240655
 21
12162.78232739466
 31
0.0
  0
LINE
  5
19B
330
1F
100
AcDbEntity
  8
majikiri
  6
Continuous
 62
   255
370
    50
100
AcDbLine
 10
8550.7848240655
 20
10668.78332739465
 30
0.0
 11
8550.7848240655
 21
12162.78232739466
 31
0.0
  0
LINE
  5
19C
330
1F
100
AcDbEntity
  8
SONOTA
  6
Continuous
 62
   255
370
    50
100
AcDbLine
 10
9492.2848240655
 20
11906.78332739466
 30
0.0
 11
9492.2848240655
 21
11287.78332739466
 31
0.0
  0
LINE
  5
19D
330
1F
100
AcDbEntity
  8
majikiri
  6
Continuous
 62
   255
370
    50
100
AcDbLine
 10
8438.782324065502
 20
10668.78332739465
 30
0.0
 11
8475.805824065501
 21
10668.78332739465
 31
0.0
  0
LINE
  5
19E
330
1F
100
AcDbEntity
  8
majikiri
  6
Continuous
 62
   255
370
    50
100
AcDbLine
 10
8438.782324065502
 20
10668.78332739465
 30
0.0
 11
8438.782324065502
 21
10593.78332739465
 31
0.0
  0
LINE
  5
19F
330
1F
100
AcDbEntity
  8
majikiri
  6
Continuous
 62
   255
370
    50
100
AcDbLine
 10
7690.782324065501
 20
10668.78332739465
 30
0.0
 11
7690.782324065501
 21
10593.78332739465
 31
0.0
  0
LINE
  5
1A0
330
1F
100
AcDbEntity
  8
SONOTA
  6
Continuous
 62
   255
370
    50
100
AcDbLine
 10
7650.784824065501
 20
10231.28332739465
 30
0.0
 11
8418.7848240655
 21
10231.28332739465
 31
0.0
  0
LINE
  5
1A1
330
1F
100
AcDbEntity
  8
majikiri
  6
Continuous
 62
   255
370
    50
100
AcDbLine
 10
7575.784824065501
 20
10231.28332739465
 30
0.0
 11
7650.784824065501
 21
10231.28332739465
 31
0.0
  0
LINE
  5
1A2
330
1F
100
AcDbEntity
  8
majikiri
  6
Continuous
 62
   255
370
    50
100
AcDbLine
 10
7575.784824065501
 20
10231.28332739465
 30
0.0
 11
7575.784824065501
 21
10593.78332739465
 31
0.0
  0
LINE
  5
1A3
330
1F
100
AcDbEntity
  8
majikiri
  6
Continuous
 62
   255
370
    50
100
AcDbLine
 10
7650.784824065501
 20
10231.28332739465
 30
0.0
 11
7650.784824065501
 21
10593.78332739465
 31
0.0
  0
LINE
  5
1A4
330
1F
100
AcDbEntity
  8
majikiri
  6
Continuous
 62
   255
370
    50
100
AcDbLine
 10
7650.784824065501
 20
10593.78332739465
 30
0.0
 11
7690.782324065501
 21
10593.78332739465
 31
0.0
  0
LINE
  5
1A5
330
1F
100
AcDbEntity
  8
majikiri
  6
Continuous
 62
   255
370
    50
100
AcDbLine
 10
8475.7848240655
 20
10593.78332739465
 30
0.0
 11
8475.805824065501
 21
10593.78332739465
 31
0.0
  0
LINE
  5
1A6
330
1F
100
AcDbEntity
  8
SONOTA
  6
Continuous
 62
   255
370
    50
100
AcDbLine
 10
9492.2848240655
 20
11287.78332739466
 30
0.0
 11
9492.2848240655
 21
10668.78332739465
 31
0.0
  0
ARC
  5
1A7
330
1F
100
AcDbEntity
  8
SONOTA
  6
Continuous
 62
   255
370
    50
100
AcDbCircle
 10
9015.342824065501
 20
12599.87132739466
 30
0.0
 40
699.8999800000001
100
AcDbArc
 50
255.1899800003297
 51
284.7999800000795
  0
LINE
  5
1A8
330
1F
100
AcDbEntity
  8
SONOTA
  6
Continuous
 62
   255
370
    50
100
AcDbLine
 10
8815.792728111303
 20
11811.22012745666
 30
0.0
 11
9214.173276814201
 21
11811.22012707966
 31
0.0
  0
ARC
  5
1A9
330
1F
100
AcDbEntity
  8
SONOTA
  6
Continuous
 62
   255
370
    50
100
AcDbCircle
 10
9015.342824065501
 20
11419.97232739466
 30
0.0
 40
700.0
100
AcDbArc
 50
90.00000000000193
 51
103.46997000034
  0
ARC
  5
1AA
330
1F
100
AcDbEntity
  8
SONOTA
  6
Continuous
 62
   255
370
    50
100
AcDbCircle
 10
9015.342824065501
 20
11537.47132739466
 30
0.0
 40
165.0
100
AcDbArc
 50
237.2403799999796
 51
270.0000000000098
  0
ARC
  5
1AB
330
1F
100
AcDbEntity
  8
SONOTA
  6
Continuous
 62
   255
370
    50
100
AcDbCircle
 10
10815.3428240654
 20
11794.34332739466
 30
0.0
 40
2000.0
100
AcDbArc
 50
181.1755799999997
 51
182.9928399999897
  0
LINE
  5
1AC
330
1F
100
AcDbEntity
  8
SONOTA
  6
Continuous
 62
   255
370
    50
100
AcDbLine
 10
8818.0708240655
 20
11689.91932739466
 30
0.0
 11
8819.264824065502
 21
11669.15332739466
 31
0.0
  0
ARC
  5
1AD
330
1F
100
AcDbEntity
  8
SONOTA
  6
Continuous
 62
   255
370
    50
100
AcDbCircle
 10
9621.4088240655
 20
11673.83732739466
 30
0.0
 40
800.0
100
AcDbArc
 50
185.7634099999497
 51
189.6127300001496
  0
ARC
  5
1AE
330
1F
100
AcDbEntity
  8
SONOTA
  6
Continuous
 62
   255
370
    50
100
AcDbCircle
 10
9039.692824065502
 20
11575.31532739466
 30
0.0
 40
209.9999900000003
100
AcDbArc
 50
189.6127300001498
 51
237.2403799999794
  0
ARC
  5
1AF
330
1F
100
AcDbEntity
  8
SONOTA
  6
Continuous
 62
   255
370
    50
100
AcDbCircle
 10
10815.3428240654
 20
11794.34332739466
 30
0.0
 40
2000.0
100
AcDbArc
 50
183.5887600000296
 51
185.7634099999496
  0
ARC
  5
1B0
330
1F
100
AcDbEntity
  8
SONOTA
  6
Continuous
 62
   255
370
    50
100
AcDbCircle
 10
8860.342824065501
 20
12066.57132739466
 30
0.0
 40
34.99999899999966
100
AcDbArc
 50
103.4699700003012
 51
180.0699899997203
  0
ARC
  5
1B1
330
1F
100
AcDbEntity
  8
SONOTA
  6
Continuous
 62
   255
370
    50
100
AcDbCircle
 10
8840.341824065998
 20
11937.67132739466
 30
0.0
 40
15.0
100
AcDbArc
 50
179.9999999995276
 51
255.1899799984799
  0
ARC
  5
1B2
330
1F
100
AcDbEntity
  8
SONOTA
  6
Continuous
 62
   255
370
    50
100
AcDbCircle
 10
8879.342824065501
 20
11811.02532739466
 30
0.0
 40
0.4999998999992386
100
AcDbArc
 50
0.0
 51
92.59872400469257
  0
LINE
  5
1B3
330
1F
100
AcDbEntity
  8
SONOTA
  6
Continuous
 62
   255
370
    50
100
AcDbLine
 10
8815.342824065501
 20
11794.47232739466
 30
0.0
 11
8815.523824065502
 21
11795.78032739466
 31
0.0
  0
LINE
  5
1B4
330
1F
100
AcDbEntity
  8
SONOTA
  6
Continuous
 62
   255
370
    50
100
AcDbLine
 10
8815.362824065502
 20
11785.30932739466
 30
0.0
 11
8815.342824065501
 21
11794.47232739466
 31
0.0
  0
LINE
  5
1B5
330
1F
100
AcDbEntity
  8
SONOTA
  6
Continuous
 62
   255
370
    50
100
AcDbLine
 10
8816.015824065502
 20
11821.93132739466
 30
0.0
 11
8815.585824065502
 21
11801.28632739466
 31
0.0
  0
LINE
  5
1B6
330
1F
100
AcDbEntity
  8
SONOTA
  6
Continuous
 62
   255
370
    50
100
AcDbLine
 10
8815.585824065502
 20
11801.28632739466
 30
0.0
 11
8815.555824065503
 21
11799.28132739466
 31
0.0
  0
LINE
  5
1B7
330
1F
100
AcDbEntity
  8
SONOTA
  6
Continuous
 62
   255
370
    50
100
AcDbLine
 10
8815.362824065502
 20
11785.30932739466
 30
0.0
 11
8815.398824065502
 21
11779.30932739466
 31
0.0
  0
LINE
  5
1B8
330
1F
100
AcDbEntity
  8
SONOTA
  6
Continuous
 62
   255
370
    50
100
AcDbLine
 10
8815.538824065503
 20
11766.30932739466
 30
0.0
 11
8815.763824065502
 21
11753.30932739466
 31
0.0
  0
LINE
  5
1B9
330
1F
100
AcDbEntity
  8
SONOTA
  6
Continuous
 62
   255
370
    50
100
AcDbLine
 10
8815.398824065502
 20
11779.30932739466
 30
0.0
 11
8815.538824065503
 21
11766.30932739466
 31
0.0
  0
LINE
  5
1BA
330
1F
100
AcDbEntity
  8
SONOTA
  6
Continuous
 62
   255
370
    50
100
AcDbLine
 10
8825.342824065501
 20
11937.67132739466
 30
0.0
 11
8816.015824065502
 21
11821.93132739466
 31
0.0
  0
LINE
  5
1BB
330
1F
100
AcDbEntity
  8
SONOTA
  6
Continuous
 62
   255
370
    50
100
AcDbLine
 10
8815.555824065503
 20
11799.28132739466
 30
0.0
 11
8815.523824065502
 21
11795.78032739466
 31
0.0
  0
LINE
  5
1BC
330
1F
100
AcDbEntity
  8
SONOTA
  6
Continuous
 62
   255
370
    50
100
AcDbLine
 10
8825.342824065501
 20
11937.67132739466
 30
0.0
 11
8825.342824065501
 21
12066.57132739466
 31
0.0
  0
ARC
  5
1BD
330
1F
100
AcDbEntity
  8
SONOTA
  6
Continuous
 62
   255
370
    50
100
AcDbCircle
 10
7215.342824065501
 20
11794.34332739466
 30
0.0
 40
2000.0
100
AcDbArc
 50
354.2365700001396
 51
359.8604499998796
  0
ARC
  5
1BE
330
1F
100
AcDbEntity
  8
SONOTA
  6
Continuous
 62
   255
370
    50
100
AcDbCircle
 10
8409.276824065501
 20
11673.83732739466
 30
0.0
 40
800.0
100
AcDbArc
 50
350.3872499998997
 51
354.2365700001396
  0
ARC
  5
1BF
330
1F
100
AcDbEntity
  8
SONOTA
  6
Continuous
 62
   255
370
    50
100
AcDbCircle
 10
8990.992824065501
 20
11575.31532739466
 30
0.0
 40
209.9999900000003
100
AcDbArc
 50
302.7595900002898
 51
350.3872499999095
  0
ARC
  5
1C0
330
1F
100
AcDbEntity
  8
SONOTA
  6
Continuous
 62
   255
370
    50
100
AcDbCircle
 10
9015.342824065501
 20
11537.47132739466
 30
0.0
 40
165.0
100
AcDbArc
 50
269.9999999999998
 51
302.75959000028
  0
ARC
  5
1C1
330
1F
100
AcDbEntity
  8
SONOTA
  6
Continuous
 62
   255
370
    50
100
AcDbCircle
 10
9170.3428240657
 20
12066.57132739466
 30
0.0
 40
34.99999899999966
100
AcDbArc
 50
0.0000000000565768
 51
76.51997300043807
  0
ARC
  5
1C2
330
1F
100
AcDbEntity
  8
SONOTA
  6
Continuous
 62
   255
370
    50
100
AcDbCircle
 10
9190.341824065501
 20
11937.67132739565
 30
0.0
 40
15.0
100
AcDbArc
 50
284.7999799996762
 51
0.0
  0
LINE
  5
1C3
330
1F
100
AcDbEntity
  8
SONOTA
  6
Continuous
 62
   255
370
    50
100
AcDbLine
 10
9215.335824065502
 20
11789.47132739466
 30
0.0
 11
9215.342824065501
 21
11794.47232739466
 31
0.0
  0
LINE
  5
1C4
330
1F
100
AcDbEntity
  8
SONOTA
  6
Continuous
 62
   255
370
    50
100
AcDbLine
 10
9205.342824065501
 20
11937.67132739466
 30
0.0
 11
9215.342824065501
 21
11794.47232739466
 31
0.0
  0
ARC
  5
1C5
330
1F
100
AcDbEntity
  8
SONOTA
  6
Continuous
 62
   255
370
    50
100
AcDbCircle
 10
9015.342824065501
 20
11419.97232739466
 30
0.0
 40
700.0
100
AcDbArc
 50
76.51997300020302
 51
89.99998400008207
  0
LINE
  5
1C6
330
1F
100
AcDbEntity
  8
majikiri
  6
Continuous
 62
   255
370
    50
100
AcDbLine
 10
9513.7848240655
 20
12162.78232739466
 30
0.0
 11
8550.7848240655
 21
12162.78232739466
 31
0.0
  0
ARC
  5
1C7
330
1F
100
AcDbEntity
  8
SONOTA
  6
Continuous
 62
   255
370
    50
100
AcDbCircle
 10
8722.7848240655
 20
12403.21932739566
 30
0.0
 40
20.0
100
AcDbArc
 50
136.754480000317
 51
180.0000000003592
  0
LINE
  5
1C8
330
1F
100
AcDbEntity
  8
SONOTA
  6
Continuous
 62
   255
370
    50
100
AcDbLine
 10
8702.7848240655
 20
12403.21932739466
 30
0.0
 11
8702.7848240655
 21
12262.22432739466
 31
0.0
  0
LINE
  5
1C9
330
1F
100
AcDbEntity
  8
SONOTA
  6
Continuous
 62
   255
370
    50
100
AcDbLine
 10
8046.787824065501
 20
13743.78332739466
 30
0.0
 11
6800.787824065501
 21
13743.78332739466
 31
0.0
  0
LINE
  5
1CA
330
1F
100
AcDbEntity
  8
SONOTA
  6
Continuous
 62
   255
370
    50
100
AcDbLine
 10
8046.787824065501
 20
13773.78332739466
 30
0.0
 11
6800.787824065501
 21
13773.78332739466
 31
0.0
  0
LINE
  5
1CB
330
1F
100
AcDbEntity
  8
kutai
  6
Continuous
 62
     1
370
    50
100
AcDbLine
 10
5463.2848240655
 20
14226.28332739466
 30
0.0
 11
5463.2848240655
 21
15076.28332739466
 31
0.0
  0
LINE
  5
1CC
330
1F
100
AcDbEntity
  8
kutai
  6
Continuous
 62
     1
370
    50
100
AcDbLine
 10
5463.2848240655
 20
14076.28332739466
 30
0.0
 11
5463.2848240655
 21
12926.28332739466
 31
0.0
  0
LINE
  5
1CD
330
1F
100
AcDbEntity
  8
SONOTA
  6
Continuous
 62
   255
370
    50
100
AcDbLine
 10
7203.294824065502
 20
13743.78332739466
 30
0.0
 11
7002.040824065501
 21
13395.20232739466
 31
0.0
  0
LINE
  5
1CE
330
1F
100
AcDbEntity
  8
SONOTA
  6
Continuous
 62
   255
370
    50
100
AcDbLine
 10
6800.787824065501
 20
13743.78332739466
 30
0.0
 11
7002.040824065501
 21
13395.20232739466
 31
0.0
  0
LINE
  5
1CF
330
1F
100
AcDbEntity
  8
majikiri
  6
Continuous
 62
   255
370
    50
100
AcDbLine
 10
6800.784824065501
 20
14412.28332739466
 30
0.0
 11
6800.787824065501
 21
13743.78332739466
 31
0.0
  0
LINE
  5
1D0
330
1F
100
AcDbEntity
  8
majikiri
  6
Continuous
 62
   255
370
    50
100
AcDbLine
 10
6725.784824065501
 20
14412.28332739466
 30
0.0
 11
6725.784824065501
 21
13743.78332739466
 31
0.0
  0
LINE
  5
1D1
330
1F
100
AcDbEntity
  8
majikiri
  6
Continuous
 62
   255
370
    50
100
AcDbLine
 10
6725.784824065501
 20
13743.78332739466
 30
0.0
 11
6800.787824065501
 21
13743.78332739466
 31
0.0
  0
LINE
  5
1D2
330
1F
100
AcDbEntity
  8
SONOTA
  6
Continuous
 62
   255
370
    50
100
AcDbLine
 10
7203.294824065502
 20
13773.78332739466
 30
0.0
 11
7203.294824065502
 21
13743.78332739466
 31
0.0
  0
LINE
  5
1D3
330
1F
100
AcDbEntity
  8
kutai
  6
Continuous
 62
     1
370
    50
100
AcDbLine
 10
5663.284824065501
 20
14551.28332739466
 30
0.0
 11
5663.284824065501
 21
15282.45847144666
 31
0.0
  0
LINE
  5
1D4
330
1F
100
AcDbEntity
  8
kutai
  6
Continuous
 62
     1
370
    50
100
AcDbLine
 10
5463.2848240655
 20
15282.45847144666
 30
0.0
 11
5463.2848240655
 21
15246.28332739466
 31
0.0
  0
LINE
  5
1D5
330
1F
100
AcDbEntity
  8
majikiri
  6
Continuous
 62
   255
370
    50
100
AcDbLine
 10
8046.787824065501
 20
13743.78332739466
 30
0.0
 11
8475.7848240655
 21
13743.78332739466
 31
0.0
  0
LINE
  5
1D6
330
1F
100
AcDbEntity
  8
majikiri
  6
Continuous
 62
   255
370
    50
100
AcDbLine
 10
8046.787824065501
 20
13818.78332739466
 30
0.0
 11
8475.7848240655
 21
13818.78332739466
 31
0.0
  0
ARC
  5
1D7
330
1F
100
AcDbEntity
  8
SONOTA
  6
Continuous
 62
   255
370
    50
100
AcDbCircle
 10
8046.787824065501
 20
13743.78332739466
 30
0.0
 40
415.0
100
AcDbArc
 50
179.9999999999998
 51
240.0000000000597
  0
LINE
  5
1D8
330
1F
100
AcDbEntity
  8
SONOTA
  6
Continuous
 62
   255
370
    50
100
AcDbLine
 10
8046.787824065501
 20
13743.78332739466
 30
0.0
 11
7839.287824065501
 21
13384.38232739466
 31
0.0
  0
LINE
  5
1D9
330
1F
100
AcDbEntity
  8
majikiri
  6
Continuous
 62
   255
370
    50
100
AcDbLine
 10
7601.784824065501
 20
14412.28332739466
 30
0.0
 11
7601.784824065501
 21
13843.28332739466
 31
0.0
  0
LINE
  5
1DA
330
1F
100
AcDbEntity
  8
majikiri
  6
Continuous
 62
   255
370
    50
100
AcDbLine
 10
7631.784824065501
 20
14412.28332739466
 30
0.0
 11
7631.784824065501
 21
13843.28332739466
 31
0.0
  0
LINE
  5
1DB
330
1F
100
AcDbEntity
  8
majikiri
  6
Continuous
 62
   255
370
    50
100
AcDbLine
 10
7631.784824065501
 20
13843.28332739466
 30
0.0
 11
7601.784824065501
 21
13843.28332739466
 31
0.0
  0
LINE
  5
1DC
330
1F
100
AcDbEntity
  8
majikiri
  6
Continuous
 62
   255
370
    50
100
AcDbLine
 10
8046.787824065501
 20
13743.78332739466
 30
0.0
 11
8046.787824065501
 21
13818.78332739466
 31
0.0
  0
LINE
  5
1DD
330
1F
100
AcDbEntity
  8
SONOTA
  6
Continuous
 62
   255
370
    50
100
AcDbLine
 10
8702.7848240655
 20
13124.23032739466
 30
0.0
 11
8702.7848240655
 21
13616.28332739466
 31
0.0
  0
ARC
  5
1DE
330
1F
100
AcDbEntity
  8
SONOTA
  6
Continuous
 62
   255
370
    50
100
AcDbCircle
 10
8722.7848240653
 20
13124.23032739566
 30
0.0
 40
20.0
100
AcDbArc
 50
180.0000000006406
 51
223.24549000083
  0
ARC
  5
1DF
330
1F
100
AcDbEntity
  8
SONOTA
  6
Continuous
 62
   255
370
    50
100
AcDbCircle
 10
9294.533781386999
 20
8483.053327395055
 30
0.0
 40
5800.0
100
AcDbArc
 50
92.10516300009701
 51
94.95048500004101
  0
ARC
  5
1E0
330
1F
100
AcDbEntity
  8
SONOTA
  6
Continuous
 62
   255
370
    50
100
AcDbCircle
 10
8617.953781386999
 20
11866.12732739466
 30
0.0
 40
2000.0
100
AcDbArc
 50
76.81898399998799
 51
81.46122700004503
  0
ARC
  5
1E1
330
1F
100
AcDbEntity
  8
SONOTA
  6
Continuous
 62
   255
370
    50
100
AcDbCircle
 10
9266.986781387001
 20
15212.04232739466
 30
0.0
 40
1500.0
100
AcDbArc
 50
258.2422599998996
 51
266.8418100000096
  0
ARC
  5
1E2
330
1F
100
AcDbEntity
  8
SONOTA
  6
Continuous
 62
   255
370
    50
100
AcDbCircle
 10
9294.533781386999
 20
6874.341927395055
 30
0.0
 40
7467.6489
100
AcDbArc
 50
89.99999999999992
 51
93.89233300001101
  0
LINE
  5
1E3
330
1F
100
AcDbEntity
  8
majikiri
  6
Continuous
 62
   255
370
    50
100
AcDbLine
 10
8475.7848240655
 20
13818.78332739466
 30
0.0
 11
8475.7848240655
 21
14412.28332739466
 31
0.0
  0
ARC
  5
1E4
330
1F
100
AcDbEntity
  8
SONOTA
  6
Continuous
 62
   255
370
    50
100
AcDbCircle
 10
10684.6327813874
 20
14063.78332739466
 30
0.0
 40
2000.0
100
AcDbArc
 50
173.99356999994
 51
186.0228799997597
  0
ARC
  5
1E5
330
1F
100
AcDbEntity
  8
SONOTA
  6
Continuous
 62
   255
370
    50
100
AcDbCircle
 10
10744.4067813874
 20
14063.78332739466
 30
0.0
 40
2000.0
100
AcDbArc
 50
175.5983100003801
 51
184.4262799995796
  0
ARC
  5
1E6
330
1F
100
AcDbEntity
  8
SONOTA
  6
Continuous
 62
   255
370
    50
100
AcDbCircle
 10
8730.496781386702
 20
13822.30432739466
 30
0.0
 40
30.0
100
AcDbArc
 50
190.3066100005385
 51
261.1222500004883
  0
ARC
  5
1E7
330
1F
100
AcDbEntity
  8
SONOTA
  6
Continuous
 62
   255
370
    50
100
AcDbCircle
 10
9192.912781387
 20
13906.39432739466
 30
0.0
 40
500.0
100
AcDbArc
 50
186.0228799997696
 51
190.3066100003797
  0
ARC
  5
1E8
330
1F
100
AcDbEntity
  8
SONOTA
  6
Continuous
 62
   255
370
    50
100
AcDbCircle
 10
10399.7587813864
 20
23733.10532739466
 30
0.0
 40
10000.0
100
AcDbArc
 50
260.7540100001097
 51
261.4608599998998
  0
ARC
  5
1E9
330
1F
100
AcDbEntity
  8
SONOTA
  6
Continuous
 62
   255
370
    50
100
AcDbCircle
 10
9051.755472991501
 20
14765.34135028566
 30
0.0
 40
1025.8192143013
100
AcDbArc
 50
251.4769531386497
 51
264.9426669412097
  0
ARC
  5
1EA
330
1F
100
AcDbEntity
  8
SONOTA
  6
Continuous
 62
   255
370
    50
100
AcDbCircle
 10
8801.219781386901
 20
13913.36632739466
 30
0.0
 40
51.0
100
AcDbArc
 50
184.4262799996097
 51
260.7540100002305
  0
ARC
  5
1EB
330
1F
100
AcDbEntity
  8
SONOTA
  6
Continuous
 62
   255
370
    50
100
AcDbCircle
 10
8729.438781387
 20
14304.85132739466
 30
0.0
 40
29.0
100
AcDbArc
 50
98.00894100001808
 51
169.7133100000592
  0
ARC
  5
1EC
330
1F
100
AcDbEntity
  8
SONOTA
  6
Continuous
 62
   255
370
    50
100
AcDbCircle
 10
9192.867781387
 20
14220.74332739466
 30
0.0
 40
500.0
100
AcDbArc
 50
169.71331000019
 51
173.9935699999201
  0
ARC
  5
1ED
330
1F
100
AcDbEntity
  8
SONOTA
  6
Continuous
 62
   255
370
    50
100
AcDbCircle
 10
8798.164781387
 20
14213.59632739466
 30
0.0
 40
48.0
100
AcDbArc
 50
94.95048500002812
 51
175.5983100003096
  0
ARC
  5
1EE
330
1F
100
AcDbEntity
  8
SONOTA
  6
Continuous
 62
   255
370
    50
100
AcDbCircle
 10
8742.4399819996
 20
14229.75273946366
 30
0.0
 40
105.2051603450709
100
AcDbArc
 50
64.56978447757429
 51
99.32215581901667
  0
ARC
  5
1EF
330
1F
100
AcDbEntity
  8
SONOTA
  6
Continuous
 62
   255
370
    50
100
AcDbCircle
 10
9267.2177813871
 20
13771.33032739466
 30
0.0
 40
70.0
100
AcDbArc
 50
239.9858199996994
 51
269.8026199999497
  0
ARC
  5
1F0
330
1F
100
AcDbEntity
  8
SONOTA
  6
Continuous
 62
   255
370
    50
100
AcDbCircle
 10
9214.855781387099
 20
13683.71032739466
 30
0.0
 40
80.0
100
AcDbArc
 50
61.46388199976799
 51
80.08720300001066
  0
ARC
  5
1F1
330
1F
100
AcDbEntity
  8
SONOTA
  6
Continuous
 62
   255
370
    50
100
AcDbCircle
 10
9286.5127813872
 20
13815.48732739466
 30
0.0
 40
70.0
100
AcDbArc
 50
241.4638800000601
 51
269.9420399997593
  0
ARC
  5
1F2
330
1F
100
AcDbEntity
  8
SONOTA
  6
Continuous
 62
   255
370
    50
100
AcDbCircle
 10
9225.699781387801
 20
13699.46032739466
 30
0.0
 40
13.0
100
AcDbArc
 50
59.98582400309927
 51
88.04042000356675
  0
ARC
  5
1F3
330
1F
100
AcDbEntity
  8
SONOTA
  6
Continuous
 62
   255
370
    50
100
AcDbCircle
 10
9271.665781387101
 20
14008.78332739466
 30
0.0
 40
250.0
100
AcDbArc
 50
245.4454300003295
 51
260.0871999998695
  0
ARC
  5
1F4
330
1F
100
AcDbEntity
  8
SONOTA
  6
Continuous
 62
   255
370
    50
100
AcDbCircle
 10
9294.533781387099
 20
15711.28332739466
 30
0.0
 40
2000.0
100
AcDbArc
 50
266.8418099999996
 51
268.0404200000597
  0
ARC
  5
1F5
330
1F
100
AcDbEntity
  8
SONOTA
  6
Continuous
 62
   255
370
    50
100
AcDbCircle
 10
8959.995781387001
 20
13326.60932739466
 30
0.0
 40
500.0
100
AcDbArc
 50
65.44543399987393
 51
76.81898399998597
  0
ARC
  5
1F6
330
1F
100
AcDbEntity
  8
SONOTA
  6
Continuous
 62
   255
370
    50
100
AcDbCircle
 10
9294.533781386503
 20
21745.48332739466
 30
0.0
 40
8000.000000000002
100
AcDbArc
 50
269.9420399999196
 51
270.0579300000197
  0
ARC
  5
1F7
330
1F
100
AcDbEntity
  8
SONOTA
  6
Continuous
 62
   255
370
    50
100
AcDbCircle
 10
9629.070781386705
 20
13326.60932739466
 30
0.0
 40
500.0
100
AcDbArc
 50
112.3545599999099
 51
114.5545499998801
  0
ARC
  5
1F8
330
1F
100
AcDbEntity
  8
SONOTA
  6
Continuous
 62
   255
370
    50
100
AcDbCircle
 10
9374.210781387203
 20
13683.71032739566
 30
0.0
 40
80.0
100
AcDbArc
 50
99.91278000013503
 51
118.5361000002005
  0
ARC
  5
1F9
330
1F
100
AcDbEntity
  8
SONOTA
  6
Continuous
 62
   255
370
    50
100
AcDbCircle
 10
9321.8487813869
 20
13771.33032739466
 30
0.0
 40
70.0
100
AcDbArc
 50
270.1973500000294
 51
300.0141600002598
  0
ARC
  5
1FA
330
1F
100
AcDbEntity
  8
SONOTA
  6
Continuous
 62
   255
370
    50
100
AcDbCircle
 10
9363.366781386701
 20
13699.46032739466
 30
0.0
 40
13.0
100
AcDbArc
 50
91.95956399892873
 51
120.0141599988806
  0
ARC
  5
1FB
330
1F
100
AcDbEntity
  8
SONOTA
  6
Continuous
 62
   255
370
    50
100
AcDbCircle
 10
9294.533781387099
 20
15711.28332739466
 30
0.0
 40
2000.0
100
AcDbArc
 50
271.9595600000096
 51
273.1581699999696
  0
ARC
  5
1FC
330
1F
100
AcDbEntity
  8
SONOTA
  6
Continuous
 62
   255
370
    50
100
AcDbCircle
 10
9317.4017813869
 20
14008.78332739466
 30
0.0
 40
250.0
100
AcDbArc
 50
279.9127799999698
 51
294.5545499999398
  0
ARC
  5
1FD
330
1F
100
AcDbEntity
  8
SONOTA
  6
Continuous
 62
   255
370
    50
100
AcDbCircle
 10
9302.5537813869
 20
13815.48732739466
 30
0.0
 40
70.0
100
AcDbArc
 50
270.0579300000698
 51
298.5361000000694
  0
ARC
  5
1FE
330
1F
100
AcDbEntity
  8
SONOTA
  6
Continuous
 62
   255
370
    50
100
AcDbCircle
 10
9629.070781386999
 20
13326.60932739466
 30
0.0
 40
500.0
100
AcDbArc
 50
103.1809899998401
 51
112.35455999995
  0
ARC
  5
1FF
330
1F
100
AcDbEntity
  8
SONOTA
  6
Continuous
 62
   255
370
    50
100
AcDbCircle
 10
9294.533781386601
 20
21701.28432739466
 30
0.0
 40
7999.999999999998
100
AcDbArc
 50
269.8026200000497
 51
270.1973499999296
  0
ARC
  5
200
330
1F
100
AcDbEntity
  8
SONOTA
  6
Continuous
 62
   255
370
    50
100
AcDbCircle
 10
9276.019781387
 20
14172.36032739466
 30
0.0
 40
150.0
100
AcDbArc
 50
90.14494299990027
 51
113.5943399999301
  0
ARC
  5
201
330
1F
100
AcDbEntity
  8
SONOTA
  6
Continuous
 62
   255
370
    50
100
AcDbCircle
 10
9067.8857813869
 20
14648.88932739466
 30
0.0
 40
370.0
100
AcDbArc
 50
272.1051600000296
 51
293.5943399999597
  0
ARC
  5
202
330
1F
100
AcDbEntity
  8
SONOTA
  6
Continuous
 62
   255
370
    50
100
AcDbCircle
 10
9313.0467813871
 20
14172.36032739466
 30
0.0
 40
150.0
100
AcDbArc
 50
66.40563900018559
 51
89.85504100014421
  0
ARC
  5
203
330
1F
100
AcDbEntity
  8
SONOTA
  6
Continuous
 62
   255
370
    50
100
AcDbCircle
 10
9521.181781387
 20
14648.88932739466
 30
0.0
 40
370.0
100
AcDbArc
 50
246.4056299999598
 51
267.8948199998796
  0
ARC
  5
204
330
1F
100
AcDbEntity
  8
SONOTA
  6
Continuous
 62
   255
370
    50
100
AcDbCircle
 10
9294.533781387201
 20
6854.735027395055
 30
0.0
 40
7467.648900000002
100
AcDbArc
 50
89.85504100011902
 51
90.14494299991399
  0
LINE
  5
205
330
1F
100
AcDbEntity
  8
SONOTA
  6
Continuous
 62
   255
370
    50
100
AcDbLine
 10
11650.7908240654
 20
12798.78332739466
 30
0.0
 11
12010.1908240654
 21
13006.28332739466
 31
0.0
  0
LINE
  5
206
330
1F
100
AcDbEntity
  8
SONOTA
  6
Continuous
 62
   255
370
    50
100
AcDbLine
 10
11650.7908240654
 20
14043.78332739466
 30
0.0
 11
11650.7908240654
 21
11968.78332739466
 31
0.0
  0
LINE
  5
207
330
1F
100
AcDbEntity
  8
SONOTA
  6
Continuous
 62
   255
370
    50
100
AcDbLine
 10
11620.7908240654
 20
14043.78332739466
 30
0.0
 11
11620.7908240654
 21
11968.78332739466
 31
0.0
  0
LINE
  5
208
330
1F
100
AcDbEntity
  8
majikiri
  6
Continuous
 62
   255
370
    50
100
AcDbLine
 10
10925.7848240654
 20
11893.78332739466
 30
0.0
 11
10925.7848240654
 21
13738.78332739466
 31
0.0
  0
LINE
  5
209
330
1F
100
AcDbEntity
  8
majikiri
  6
Continuous
 62
   255
370
    50
100
AcDbLine
 10
11000.7898240654
 20
12798.78332739466
 30
0.0
 11
11000.7869111434
 21
13738.78332739466
 31
0.0
  0
LINE
  5
20A
330
1F
100
AcDbEntity
  8
SONOTA
  6
Continuous
 62
   255
370
    50
100
AcDbLine
 10
11650.7908240654
 20
11968.78332739466
 30
0.0
 11
11999.3658240654
 21
12170.03332739466
 31
0.0
  0
LINE
  5
20B
330
1F
100
AcDbEntity
  8
SONOTA
  6
Continuous
 62
   255
370
    50
100
AcDbLine
 10
11999.3658240654
 20
12170.03332739466
 30
0.0
 11
11650.7908240654
 21
12371.28332739466
 31
0.0
  0
LINE
  5
20C
330
1F
100
AcDbEntity
  8
SONOTA
  6
Continuous
 62
   255
370
    50
100
AcDbLine
 10
11423.0458240654
 20
11161.31855125966
 30
0.0
 11
11423.0458240654
 21
11713.43810353065
 31
0.0
  0
LINE
  5
20D
330
1F
100
AcDbEntity
  8
majikiri
  6
Continuous
 62
   255
370
    50
100
AcDbLine
 10
11650.7848240654
 20
10593.78332739465
 30
0.0
 11
11650.7848240654
 21
11968.78332739466
 31
0.0
  0
LINE
  5
20E
330
1F
100
AcDbEntity
  8
majikiri
  6
Continuous
 62
   255
370
    50
100
AcDbLine
 10
11575.7848240654
 20
10633.78332739465
 30
0.0
 11
11575.7848240654
 21
11893.78332739466
 31
0.0
  0
LINE
  5
20F
330
1F
100
AcDbEntity
  8
SONOTA
  6
Continuous
 62
   255
370
    50
100
AcDbLine
 10
10966.0458240654
 20
11437.37832739466
 30
0.0
 11
10978.7438240654
 21
11337.01032739466
 31
0.0
  0
LINE
  5
210
330
1F
100
AcDbEntity
  8
majikiri
  6
Continuous
 62
   255
370
    50
100
AcDbLine
 10
9563.7848240655
 20
11267.78332739466
 30
0.0
 11
9563.7848240655
 21
11893.78332739466
 31
0.0
  0
ARC
  5
211
330
1F
100
AcDbEntity
  8
SONOTA
  6
Continuous
 62
   255
370
    50
100
AcDbCircle
 10
11319.0458240654
 20
11437.37832739466
 30
0.0
 40
295.0
100
AcDbArc
 50
69.35710293269996
 51
290.6428970672997
  0
LINE
  5
212
330
1F
100
AcDbEntity
  8
SONOTA
  6
Continuous
 62
   255
370
    50
100
AcDbLine
 10
10677.2908240654
 20
10653.78332739465
 30
0.0
 11
9978.290824065502
 21
10653.78332739465
 31
0.0
  0
LINE
  5
213
330
1F
100
AcDbEntity
  8
majikiri
  6
Continuous
 62
   255
370
    50
100
AcDbLine
 10
9978.290824065502
 20
10668.78332739465
 30
0.0
 11
9978.290824065502
 21
10593.78332739465
 31
0.0
  0
LINE
  5
214
330
1F
100
AcDbEntity
  8
majikiri
  6
Continuous
 62
   255
370
    50
100
AcDbLine
 10
10657.2908240654
 20
10593.78332739465
 30
0.0
 11
10657.2908240654
 21
10633.78332739465
 31
0.0
  0
LINE
  5
215
330
1F
100
AcDbEntity
  8
majikiri
  6
Continuous
 62
   255
370
    50
100
AcDbLine
 10
10657.2908240654
 20
10593.78332739465
 30
0.0
 11
11650.7848240654
 21
10593.78332739465
 31
0.0
  0
LINE
  5
216
330
1F
100
AcDbEntity
  8
majikiri
  6
Continuous
 62
   255
370
    50
100
AcDbLine
 10
10657.2908240654
 20
10633.78332739465
 30
0.0
 11
11575.7848240654
 21
10633.78332739465
 31
0.0
  0
LINE
  5
217
330
1F
100
AcDbEntity
  8
SONOTA
  6
Continuous
 62
   255
370
    50
100
AcDbLine
 10
11575.7848240654
 20
10689.37832739465
 30
0.0
 11
11116.0458240654
 21
10689.37832739465
 31
0.0
  0
LINE
  5
218
330
1F
100
AcDbEntity
  8
SONOTA
  6
Continuous
 62
   255
370
    50
100
AcDbLine
 10
11376.2908240654
 20
10653.78332739465
 30
0.0
 11
10677.2908240654
 21
10653.78332739465
 31
0.0
  0
LINE
  5
219
330
1F
100
AcDbEntity
  8
SONOTA
  6
Continuous
 62
   255
370
    50
100
AcDbLine
 10
11116.0458240654
 20
10689.37832739465
 30
0.0
 11
11116.0458240654
 21
11114.26832739466
 31
0.0
  0
LINE
  5
21A
330
1F
100
AcDbEntity
  8
SONOTA
  6
Continuous
 62
   255
370
    50
100
AcDbLine
 10
11009.9558240654
 20
11254.44832739466
 30
0.0
 11
11053.7698240654
 21
11186.35932739466
 31
0.0
  0
LINE
  5
21B
330
1F
100
AcDbEntity
  8
SONOTA
  6
Continuous
 62
   255
370
    50
100
AcDbLine
 10
10978.7438240654
 20
11337.01032739466
 30
0.0
 11
11009.9558240654
 21
11254.44832739466
 31
0.0
  0
ARC
  5
21C
330
1F
100
AcDbEntity
  8
SONOTA
  6
Continuous
 62
   255
370
    50
100
AcDbCircle
 10
11096.0458240654
 20
11114.26832739466
 30
0.0
 40
20.0
100
AcDbArc
 50
0.0000000000312661
 51
49.8050840002313
  0
ARC
  5
21D
330
1F
100
AcDbEntity
  8
SONOTA
  6
Continuous
 62
   255
370
    50
100
AcDbCircle
 10
11096.0458240654
 20
11114.26832739466
 30
0.0
 40
20.0
100
AcDbArc
 50
0.0000000000312661
 51
49.8050840002313
  0
LINE
  5
21E
330
1F
100
AcDbEntity
  8
SONOTA
  6
Continuous
 62
   255
370
    50
100
AcDbLine
 10
11116.0458240654
 20
10987.37832739465
 30
0.0
 11
11116.0458240654
 21
11114.26832739466
 31
0.0
  0
LINE
  5
21F
330
1F
100
AcDbEntity
  8
SONOTA
  6
Continuous
 62
   255
370
    50
100
AcDbLine
 10
11116.0458240654
 20
10987.37832739465
 30
0.0
 11
11116.0458240654
 21
11114.26832739466
 31
0.0
  0
LINE
  5
220
330
1F
100
AcDbEntity
  8
SONOTA
  6
Continuous
 62
   255
370
    50
100
AcDbLine
 10
11053.7698240654
 20
11186.35932739466
 30
0.0
 11
11108.9538240654
 21
11129.54532739466
 31
0.0
  0
LINE
  5
221
330
1F
100
AcDbEntity
  8
majikiri
  6
Continuous
 62
   255
370
    50
100
AcDbLine
 10
10038.2848240654
 20
12162.78232739466
 30
0.0
 11
10038.2848240654
 21
11953.28332739466
 31
0.0
  0
LINE
  5
222
330
1F
100
AcDbEntity
  8
majikiri
  6
Continuous
 62
   255
370
    50
100
AcDbLine
 10
10097.7848240654
 20
12282.22432739466
 30
0.0
 11
10097.7848240654
 21
11893.78332739466
 31
0.0
  0
LINE
  5
223
330
1F
100
AcDbEntity
  8
majikiri
  6
Continuous
 62
   255
370
    50
100
AcDbLine
 10
9563.7848240655
 20
11953.28332739466
 30
0.0
 11
9563.7848240655
 21
12162.78232739466
 31
0.0
  0
LINE
  5
224
330
1F
100
AcDbEntity
  8
majikiri
  6
Continuous
 62
   255
370
    50
100
AcDbLine
 10
10097.7848240654
 20
11893.78332739466
 30
0.0
 11
9563.7848240655
 21
11893.78332739466
 31
0.0
  0
LINE
  5
225
330
1F
100
AcDbEntity
  8
majikiri
  6
Continuous
 62
   255
370
    50
100
AcDbLine
 10
10038.2848240654
 20
11953.28332739466
 30
0.0
 11
9563.7848240655
 21
11953.28332739466
 31
0.0
  0
LINE
  5
226
330
1F
100
AcDbEntity
  8
majikiri
  6
Continuous
 62
   255
370
    50
100
AcDbLine
 10
10038.2848240654
 20
12282.22432739466
 30
0.0
 11
10097.7848240654
 21
12282.22432739466
 31
0.0
  0
LINE
  5
227
330
1F
100
AcDbEntity
  8
majikiri
  6
Continuous
 62
   255
370
    50
100
AcDbLine
 10
9563.7848240655
 20
12162.78232739466
 30
0.0
 11
10038.2848240654
 21
12162.78232739466
 31
0.0
  0
LINE
  5
228
330
1F
100
AcDbEntity
  8
majikiri
  6
Continuous
 62
   255
370
    50
100
AcDbLine
 10
10038.2848240654
 20
12262.22432739466
 30
0.0
 11
10038.2848240654
 21
12282.22432739466
 31
0.0
  0
LINE
  5
229
330
1F
100
AcDbEntity
  8
majikiri
  6
Continuous
 62
   255
370
    50
100
AcDbLine
 10
11000.7923961134
 20
11968.78332739466
 30
0.0
 11
11000.7899170314
 21
12768.78332739466
 31
0.0
  0
LINE
  5
22A
330
1F
100
AcDbEntity
  8
majikiri
  6
Continuous
 62
   255
370
    50
100
AcDbLine
 10
11000.7923961134
 20
11968.78332739466
 30
0.0
 11
11650.7848240654
 21
11968.78332739466
 31
0.0
  0
LINE
  5
22B
330
1F
100
AcDbEntity
  8
majikiri
  6
Continuous
 62
   255
370
    50
100
AcDbLine
 10
10925.7848240654
 20
11893.78332739466
 30
0.0
 11
11575.7848240654
 21
11893.78332739466
 31
0.0
  0
ARC
  5
22C
330
1F
100
AcDbEntity
  8
SONOTA
  6
Continuous
 62
   255
370
    50
100
AcDbCircle
 10
11096.0458240654
 20
11760.48832739566
 30
0.0
 40
20.0
100
AcDbArc
 50
310.1949299990988
 51
0.0
  0
ARC
  5
22D
330
1F
100
AcDbEntity
  8
SONOTA
  6
Continuous
 62
   255
370
    50
100
AcDbCircle
 10
11096.0458240654
 20
11760.48832739566
 30
0.0
 40
20.0
100
AcDbArc
 50
310.1949299990988
 51
0.0
  0
LINE
  5
22E
330
1F
100
AcDbEntity
  8
SONOTA
  6
Continuous
 62
   255
370
    50
100
AcDbLine
 10
11108.9538240654
 20
11745.21132739466
 30
0.0
 11
11056.6808240654
 21
11692.01032739466
 31
0.0
  0
LINE
  5
22F
330
1F
100
AcDbEntity
  8
SONOTA
  6
Continuous
 62
   255
370
    50
100
AcDbLine
 10
10979.3548240654
 20
11540.09132739466
 30
0.0
 11
10966.0458240654
 21
11437.37832739466
 31
0.0
  0
LINE
  5
230
330
1F
100
AcDbEntity
  8
SONOTA
  6
Continuous
 62
   255
370
    50
100
AcDbLine
 10
11011.0428240654
 20
11622.42732739466
 30
0.0
 11
10979.3548240654
 21
11540.09132739466
 31
0.0
  0
LINE
  5
231
330
1F
100
AcDbEntity
  8
SONOTA
  6
Continuous
 62
   255
370
    50
100
AcDbLine
 10
11056.6808240654
 20
11692.01032739466
 30
0.0
 11
11011.0428240654
 21
11622.42732739466
 31
0.0
  0
LINE
  5
232
330
1F
100
AcDbEntity
  8
SONOTA
  6
Continuous
 62
   255
370
    50
100
AcDbLine
 10
11116.0458240654
 20
11760.48832739466
 30
0.0
 11
11116.0458240654
 21
11887.37832739466
 31
0.0
  0
LINE
  5
233
330
1F
100
AcDbEntity
  8
majikiri
  6
Continuous
 62
   255
370
    50
100
AcDbLine
 10
11000.7898240654
 20
12768.78332739466
 30
0.0
 11
11569.7908240654
 21
12768.78332739466
 31
0.0
  0
LINE
  5
234
330
1F
100
AcDbEntity
  8
majikiri
  6
Continuous
 62
   255
370
    50
100
AcDbLine
 10
11000.7898240654
 20
12798.78332739466
 30
0.0
 11
11569.7908240654
 21
12798.78332739466
 31
0.0
  0
LINE
  5
235
330
1F
100
AcDbEntity
  8
SONOTA
  6
Continuous
 62
   255
370
    50
100
AcDbLine
 10
11650.7908240654
 20
12371.28332739466
 30
0.0
 11
11620.7908240654
 21
12371.28332739466
 31
0.0
  0
LINE
  5
236
330
1F
100
AcDbEntity
  8
majikiri
  6
Continuous
 62
   255
370
    50
100
AcDbLine
 10
11569.7908240654
 20
12798.78332739466
 30
0.0
 11
11569.7908240654
 21
12768.78332739466
 31
0.0
  0
ARC
  5
237
330
1F
100
AcDbEntity
  8
SONOTA
  6
Continuous
 62
   255
370
    50
100
AcDbCircle
 10
11650.7908240654
 20
14043.78332739466
 30
0.0
 40
415.0
100
AcDbArc
 50
269.9999999999998
 51
329.9999999999897
  0
LINE
  5
238
330
1F
100
AcDbEntity
  8
SONOTA
  6
Continuous
 62
   255
370
    50
100
AcDbLine
 10
11650.7908240654
 20
14043.78332739466
 30
0.0
 11
12010.1908240654
 21
13836.28332739466
 31
0.0
  0
LINE
  5
239
330
1F
100
AcDbEntity
  8
SONOTA
  6
Continuous
 62
   255
370
    50
100
AcDbLine
 10
12010.1908240654
 20
13006.28332739466
 30
0.0
 11
11650.7908240654
 21
13213.78332739466
 31
0.0
  0
LINE
  5
23A
330
1F
100
AcDbEntity
  8
kutai
  6
Continuous
 62
     1
370
    50
100
AcDbLine
 10
10038.2848240654
 20
13738.78332739466
 30
0.0
 11
11000.7869111434
 21
13738.78332739466
 31
0.0
  0
LINE
  5
23B
330
1F
100
AcDbEntity
  8
SONOTA
  6
Continuous
 62
   255
370
    50
100
AcDbLine
 10
10197.7848240654
 20
13688.78332739466
 30
0.0
 11
10825.7848240654
 21
13688.78332739466
 31
0.0
  0
LINE
  5
23C
330
1F
100
AcDbEntity
  8
SONOTA
  6
Continuous
 62
   255
370
    50
100
AcDbLine
 10
10100.7848240654
 20
13040.28332739466
 30
0.0
 11
10925.7848240654
 21
13040.28332739466
 31
0.0
  0
LINE
  5
23D
330
1F
100
AcDbEntity
  8
SONOTA
  6
Continuous
 62
   255
370
    50
100
AcDbLine
 10
10197.7848240654
 20
13090.28332739466
 30
0.0
 11
10825.7848240654
 21
13090.28332739466
 31
0.0
  0
ARC
  5
23E
330
1F
100
AcDbEntity
  8
SONOTA
  6
Continuous
 62
   255
370
    50
100
AcDbCircle
 10
10197.7848240654
 20
13638.78332739466
 30
0.0
 40
50.0
100
AcDbArc
 50
89.99999999999992
 51
179.9999999999998
  0
LINE
  5
23F
330
1F
100
AcDbEntity
  8
majikiri
  6
Continuous
 62
   255
370
    50
100
AcDbLine
 10
10038.2848240654
 20
13738.78332739466
 30
0.0
 11
10038.2848240654
 21
13040.28332739466
 31
0.0
  0
LINE
  5
240
330
1F
100
AcDbEntity
  8
majikiri
  6
Continuous
 62
   255
370
    50
100
AcDbLine
 10
10097.7848240654
 20
13738.78332739466
 30
0.0
 11
10097.7848240654
 21
13040.28332739466
 31
0.0
  0
LINE
  5
241
330
1F
100
AcDbEntity
  8
majikiri
  6
Continuous
 62
   255
370
    50
100
AcDbLine
 10
10038.2848240654
 20
13040.28332739466
 30
0.0
 11
10100.7848240654
 21
13040.28332739466
 31
0.0
  0
LINE
  5
242
330
1F
100
AcDbEntity
  8
SONOTA
  6
Continuous
 62
   255
370
    50
100
AcDbLine
 10
10147.7848240654
 20
13638.78332739466
 30
0.0
 11
10147.7848240654
 21
13140.28332739466
 31
0.0
  0
ARC
  5
243
330
1F
100
AcDbEntity
  8
SONOTA
  6
Continuous
 62
   255
370
    50
100
AcDbCircle
 10
10197.7848240654
 20
13140.28332739466
 30
0.0
 40
50.0
100
AcDbArc
 50
179.9999999999998
 51
269.9999999998788
  0
ARC
  5
244
330
1F
100
AcDbEntity
  8
SONOTA
  6
Continuous
 62
   255
370
    50
100
AcDbCircle
 10
7844.659781387
 20
14063.78332739466
 30
0.0
 40
1999.999999999999
100
AcDbArc
 50
355.5736899996796
 51
4.351791300190502
  0
ARC
  5
245
330
1F
100
AcDbEntity
  8
SONOTA
  6
Continuous
 62
   255
370
    50
100
AcDbCircle
 10
7904.433781387
 20
14063.78332739466
 30
0.0
 40
2000.000000000001
100
AcDbArc
 50
353.9770900000796
 51
6.006408599936114
  0
LINE
  5
246
330
1F
100
AcDbEntity
  8
kutai
  6
Continuous
 62
     1
370
    50
100
AcDbLine
 10
10038.2848240654
 20
13738.78332739466
 30
0.0
 11
10038.2848240654
 21
14412.28332739466
 31
0.0
  0
ARC
  5
247
330
1F
100
AcDbEntity
  8
SONOTA
  6
Continuous
 62
   255
370
    50
100
AcDbCircle
 10
8189.307781387001
 20
23733.10532739466
 30
0.0
 40
10000.0
100
AcDbArc
 50
278.5391200000497
 51
279.2459700000497
  0
ARC
  5
248
330
1F
100
AcDbEntity
  8
SONOTA
  6
Continuous
 62
   255
370
    50
100
AcDbCircle
 10
9537.320143774901
 20
14765.29739841065
 30
0.0
 40
1025.7746612435
100
AcDbArc
 50
275.0571309856496
 51
288.5233466755297
  0
ARC
  5
249
330
1F
100
AcDbEntity
  8
SONOTA
  6
Continuous
 62
   255
370
    50
100
AcDbCircle
 10
9787.846781386999
 20
13913.36632739466
 30
0.0
 40
51.0
100
AcDbArc
 50
279.2459700000904
 51
355.5736899998195
  0
ARC
  5
24A
330
1F
100
AcDbEntity
  8
SONOTA
  6
Continuous
 62
   255
370
    50
100
AcDbCircle
 10
9396.153781387
 20
13906.39432739466
 30
0.0
 40
500.0
100
AcDbArc
 50
349.6933700001196
 51
353.9770900000996
  0
ARC
  5
24B
330
1F
100
AcDbEntity
  8
SONOTA
  6
Continuous
 62
   255
370
    50
100
AcDbCircle
 10
9858.569781386899
 20
13822.30432739466
 30
0.0
 40
30.0
100
AcDbArc
 50
278.8777300001496
 51
349.6933700005488
  0
ARC
  5
24C
330
1F
100
AcDbEntity
  8
SONOTA
  6
Continuous
 62
   255
370
    50
100
AcDbCircle
 10
9789.0377813871
 20
14211.75032739466
 30
0.0
 40
50.0
100
AcDbArc
 50
4.351791300213391
 51
85.06642100027409
  0
ARC
  5
24D
330
1F
100
AcDbEntity
  8
SONOTA
  6
Continuous
 62
   255
370
    50
100
AcDbCircle
 10
9848.4601663298
 20
14241.00778358666
 30
0.0
 40
93.80190909431985
100
AcDbArc
 50
80.66881737836002
 51
117.1460558364805
  0
ARC
  5
24E
330
1F
100
AcDbEntity
  8
SONOTA
  6
Continuous
 62
   255
370
    50
100
AcDbCircle
 10
9396.198781387
 20
14220.74332739466
 30
0.0
 40
500.0
100
AcDbArc
 50
6.006408599941831
 51
10.28666600020409
  0
ARC
  5
24F
330
1F
100
AcDbEntity
  8
SONOTA
  6
Continuous
 62
   255
370
    50
100
AcDbCircle
 10
9859.6287813871
 20
14304.85132739466
 30
0.0
 40
29.0
100
AcDbArc
 50
10.28666600026363
 51
81.99104300027369
  0
ARC
  5
250
330
1F
100
AcDbEntity
  8
SONOTA
  6
Continuous
 62
   255
370
    50
100
AcDbCircle
 10
10825.7848240654
 20
13638.78332739466
 30
0.0
 40
50.0
100
AcDbArc
 50
0.0
 51
90.00000000006671
  0
LINE
  5
251
330
1F
100
AcDbEntity
  8
SONOTA
  6
Continuous
 62
   255
370
    50
100
AcDbLine
 10
10875.7848240654
 20
13140.28332739466
 30
0.0
 11
10875.7848240654
 21
13638.78332739466
 31
0.0
  0
ARC
  5
252
330
1F
100
AcDbEntity
  8
SONOTA
  6
Continuous
 62
   255
370
    50
100
AcDbCircle
 10
10825.7848240654
 20
13140.28332739466
 30
0.0
 40
50.0
100
AcDbArc
 50
269.9999999999998
 51
0.0
  0
LINE
  5
253
330
1F
100
AcDbEntity
  8
SONOTA
  6
Continuous
 62
   255
370
    50
100
AcDbLine
 10
11650.7908240654
 20
13213.78332739466
 30
0.0
 11
11620.7908240654
 21
13213.78332739466
 31
0.0
  0
LINE
  5
254
330
1F
100
AcDbEntity
  8
SONOTA
  6
Continuous
 62
   255
370
    50
100
AcDbLine
 10
11650.7908240654
 20
13628.78332739466
 30
0.0
 11
11620.7908240654
 21
13628.78332739466
 31
0.0
  0
LINE
  5
255
330
1F
100
AcDbEntity
  8
kutai
  6
Continuous
 62
     1
370
    50
100
AcDbLine
 10
11000.7869111434
 20
13738.78332739466
 30
0.0
 11
11000.7848240654
 21
14412.28332739466
 31
0.0
  0
LINE
  5
256
330
1F
100
AcDbEntity
  8
majikiri
  6
Continuous
 62
   255
370
    50
100
AcDbLine
 10
11650.7848240654
 20
14043.78332739466
 30
0.0
 11
11650.7848240654
 21
14412.28332739466
 31
0.0
  0
LINE
  5
257
330
1F
100
AcDbEntity
  8
majikiri
  6
Continuous
 62
   255
370
    50
100
AcDbLine
 10
11575.7848240654
 20
14043.78332739466
 30
0.0
 11
11575.7848240654
 21
14412.28332739466
 31
0.0
  0
LINE
  5
258
330
1F
100
AcDbEntity
  8
majikiri
  6
Continuous
 62
   255
370
    50
100
AcDbLine
 10
11650.7848240654
 20
14043.78332739466
 30
0.0
 11
11575.7848240654
 21
14043.78332739466
 31
0.0
  0
TEXT
  5
259
330
1F
100
AcDbEntity
  8
sunpou
  6
Continuous
 62
   255
370
    25
100
AcDbText
 10
9364.0271464094
 20
16569.55949882566
 30
0.0
 40
200.0
  1
2,450
 41
0.5
100
AcDbText
  0
TEXT
  5
25A
330
1F
100
AcDbEntity
  8
sunpou
  6
Continuous
 62
   255
370
    25
100
AcDbText
 10
6600.833168749201
 20
16574.62925768665
 30
0.0
 40
200.0
  1
2,950
 41
0.5
100
AcDbText
  0
LINE
  5
25B
330
1F
100
AcDbEntity
  8
sunpou
  6
Continuous
 62
   255
370
    50
100
AcDbLine
 10
5513.787349382501
 20
16501.78585271166
 30
0.0
 11
5612.782298748601
 21
16600.78080207765
 31
0.0
  0
LINE
  5
25C
330
1F
100
AcDbEntity
  8
sunpou
  6
Continuous
 62
   255
370
    50
100
AcDbLine
 10
5513.787349382501
 20
16801.78585271166
 30
0.0
 11
5612.782298748601
 21
16900.78080207765
 31
0.0
  0
LINE
  5
25D
330
1F
100
AcDbEntity
  8
sunpou
  6
Continuous
 62
   255
370
    50
100
AcDbLine
 10
8463.787349382401
 20
16501.78585271166
 30
0.0
 11
8562.7822987486
 21
16600.78080207765
 31
0.0
  0
TEXT
  5
25E
330
1F
100
AcDbEntity
  8
sunpou
  6
Continuous
 62
   255
370
    25
100
AcDbText
 10
11043.2615092574
 20
16569.55949882566
 30
0.0
 40
200.0
  1
650
 41
0.5
100
AcDbText
  0
LINE
  5
25F
330
1F
100
AcDbEntity
  8
sunpou
  6
Continuous
 62
   255
370
    50
100
AcDbLine
 10
10913.7873493824
 20
16501.78585271166
 30
0.0
 11
11012.7822987484
 21
16600.78080207765
 31
0.0
  0
LINE
  5
260
330
1F
100
AcDbEntity
  8
sunpou
  6
Continuous
 62
   255
370
    50
100
AcDbLine
 10
11563.7873493824
 20
16501.78585271166
 30
0.0
 11
11662.7822987484
 21
16600.78080207765
 31
0.0
  0
TEXT
  5
261
330
1F
100
AcDbEntity
  8
sunpou
  6
Continuous
 62
   255
370
    25
100
AcDbText
 10
10609.6235360384
 20
16869.55949882566
 30
0.0
 40
200.0
  1
11,210
 41
0.5
100
AcDbText
  0
TEXT
  5
262
330
1F
100
AcDbEntity
  8
sunpou
  6
Continuous
 62
   255
370
    25
100
AcDbText
 10
12671.5126037894
 20
16569.55949882566
 30
0.0
 40
200.0
  1
2,960
 41
0.5
100
AcDbText
  0
TEXT
  5
263
330
1F
100
AcDbEntity
  8
sunpou
  6
Continuous
 62
   255
370
    25
100
AcDbText
 10
18380.2113652404
 20
9713.486611156555
 30
0.0
 40
200.0
  1
8,450
 50
89.99999999999992
 41
0.5
100
AcDbText
  0
LINE
  5
264
330
1F
100
AcDbEntity
  8
SONOTA
  6
Continuous
 62
   255
370
    50
100
AcDbLine
 10
16869.7318437564
 20
6821.283327395054
 30
0.0
 11
16869.7318437564
 21
13681.28332739466
 31
0.0
  0
LINE
  5
265
330
1F
100
AcDbEntity
  8
SONOTA
  6
Continuous
 62
   255
370
    50
100
AcDbLine
 10
16919.7318437564
 20
6821.283327395054
 30
0.0
 11
16919.7318437564
 21
13681.28332739466
 31
0.0
  0
LINE
  5
266
330
1F
100
AcDbEntity
  8
SONOTA
  6
Continuous
 62
   255
370
    50
100
AcDbLine
 10
16525.7848240654
 20
13731.28332739466
 30
0.0
 11
16525.7848240654
 21
7071.283327395054
 31
0.0
  0
LINE
  5
267
330
1F
100
AcDbEntity
  8
SONOTA
  6
Continuous
 62
   255
370
    50
100
AcDbLine
 10
16625.7848240654
 20
13731.28332739466
 30
0.0
 11
16625.7848240654
 21
6771.283327395054
 31
0.0
  0
LINE
  5
268
330
1F
100
AcDbEntity
  8
SONOTA
  6
Continuous
 62
   255
370
    50
100
AcDbLine
 10
17195.7848240654
 20
6773.783327395055
 30
0.0
 11
17195.7848240654
 21
13728.78332739466
 31
0.0
  0
LINE
  5
269
330
1F
100
AcDbEntity
  8
sunpou
  6
Continuous
 62
   255
370
    50
100
AcDbLine
 10
18095.7848240654
 20
6031.283327395055
 30
0.0
 11
18095.7848240654
 21
14481.28332739466
 31
0.0
  0
LINE
  5
26A
330
1F
100
AcDbEntity
  8
sunpou
  6
Continuous
 62
   255
370
    50
100
AcDbLine
 10
18395.7848240654
 20
6031.283327395055
 30
0.0
 11
18395.7848240654
 21
14481.28332739466
 31
0.0
  0
LINE
  5
26B
330
1F
100
AcDbEntity
  8
SONOTA
  6
Continuous
 62
   255
370
    50
100
AcDbLine
 10
14538.2848240654
 20
9566.283327395055
 30
0.0
 11
14538.2848240654
 21
11396.28332739466
 31
0.0
  0
LINE
  5
26C
330
1F
100
AcDbEntity
  8
SONOTA
  6
Continuous
 62
   255
370
    50
100
AcDbLine
 10
14565.7848240654
 20
9566.283327395055
 30
0.0
 11
14565.7848240654
 21
10506.28332739465
 31
0.0
  0
LINE
  5
26D
330
1F
100
AcDbEntity
  8
SONOTA
  6
Continuous
 62
   255
370
    50
100
AcDbLine
 10
14608.2848240654
 20
9566.283327395055
 30
0.0
 11
14608.2848240654
 21
11396.28332739466
 31
0.0
  0
TEXT
  5
26E
330
1F
100
AcDbEntity
  8
sunpou
  6
Continuous
 62
   255
370
    25
100
AcDbText
 10
15314.1195568824
 20
3528.783527395055
 30
0.0
 40
200.0
  1
2,200
 41
0.5
100
AcDbText
  0
LINE
  5
26F
330
1F
100
AcDbEntity
  8
sunpou
  6
Continuous
 62
   255
370
    50
100
AcDbLine
 10
16773.2848240654
 20
3228.783527395055
 30
0.0
 11
16773.2848240654
 21
4128.783527395055
 31
0.0
  0
LINE
  5
270
330
1F
100
AcDbEntity
  8
sunpou
  6
Continuous
 62
   255
370
    50
100
AcDbLine
 10
14573.2848240654
 20
3528.783527395055
 30
0.0
 11
14573.2848240654
 21
4128.783527395055
 31
0.0
  0
LINE
  5
271
330
1F
100
AcDbEntity
  8
sunpou
  6
Continuous
 62
   255
370
    50
100
AcDbLine
 10
14523.7873493824
 20
3479.286052712055
 30
0.0
 11
14622.7822987484
 21
3578.281002078155
 31
0.0
  0
LINE
  5
272
330
1F
100
AcDbEntity
  8
sunpou
  6
Continuous
 62
   255
370
    50
100
AcDbLine
 10
16723.7873493824
 20
3179.286052712055
 30
0.0
 11
16822.7822987484
 21
3278.281002078155
 31
0.0
  0
LINE
  5
273
330
1F
100
AcDbEntity
  8
sunpou
  6
Continuous
 62
   255
370
    50
100
AcDbLine
 10
16723.7873493824
 20
3479.286052712055
 30
0.0
 11
16822.7822987484
 21
3578.281002078155
 31
0.0
  0
LINE
  5
274
330
1F
100
AcDbEntity
  8
sunpou
  6
Continuous
 62
   255
370
    50
100
AcDbLine
 10
18395.7848240654
 20
6031.283327395055
 30
0.0
 11
17495.7848240654
 21
6031.283327395156
 31
0.0
  0
LINE
  5
275
330
1F
100
AcDbEntity
  8
kutai
  6
Continuous
 62
     1
370
    50
100
AcDbLine
 10
17195.7848240654
 20
5928.783327395053
 30
0.0
 11
17195.7848240654
 21
6773.783327395055
 31
0.0
  0
LINE
  5
276
330
1F
100
AcDbEntity
  8
kutai
  6
Continuous
 62
     1
370
    50
100
AcDbLine
 10
16353.2848240654
 20
6771.283327395054
 30
0.0
 11
16353.2848240654
 21
5928.783327395053
 31
0.0
  0
LINE
  5
277
330
1F
100
AcDbEntity
  8
SONOTA
  6
Continuous
 62
   255
370
    50
100
AcDbLine
 10
16253.2848240654
 20
6151.283327395054
 30
0.0
 11
16253.2848240654
 21
7071.283327395054
 31
0.0
  0
LINE
  5
278
330
1F
100
AcDbEntity
  8
SONOTA
  6
Continuous
 62
   255
370
    50
100
AcDbLine
 10
14748.2848240654
 20
5941.283327395055
 30
0.0
 11
14748.2848240654
 21
7701.283327395055
 31
0.0
  0
LINE
  5
279
330
1F
100
AcDbEntity
  8
SONOTA
  6
Continuous
 62
   255
370
    50
100
AcDbLine
 10
14678.2848240654
 20
5941.283327395055
 30
0.0
 11
14678.2848240654
 21
7701.283327395055
 31
0.0
  0
LINE
  5
27A
330
1F
100
AcDbEntity
  8
SONOTA
  6
Continuous
 62
   255
370
    50
100
AcDbLine
 10
14705.7848240654
 20
5941.283327395055
 30
0.0
 11
14705.7848240654
 21
6846.283327395054
 31
0.0
  0
LINE
  5
27B
330
1F
100
AcDbEntity
  8
SONOTA
  6
Continuous
 62
   255
370
    50
100
AcDbLine
 10
16353.2848240654
 20
6151.283327395054
 30
0.0
 11
14748.2848240654
 21
6151.283327395054
 31
0.0
  0
LINE
  5
27C
330
1F
100
AcDbEntity
  8
SONOTA
  6
Continuous
 62
   255
370
    50
100
AcDbLine
 10
16303.2848240654
 20
6066.283327395055
 30
0.0
 11
14798.2848240654
 21
6066.283327395055
 31
0.0
  0
LINE
  5
27D
330
1F
100
AcDbEntity
  8
SONOTA
  6
Continuous
 62
   255
370
    50
100
AcDbLine
 10
16303.2848240654
 20
6016.283327395055
 30
0.0
 11
14798.2848240654
 21
6016.283327395055
 31
0.0
  0
LINE
  5
27E
330
1F
100
AcDbEntity
  8
SONOTA
  6
Continuous
 62
   255
370
    50
100
AcDbLine
 10
14748.2848240654
 20
5928.783327395053
 30
0.0
 11
16353.2848240654
 21
5928.783327395053
 31
0.0
  0
LINE
  5
27F
330
1F
100
AcDbEntity
  8
SONOTA
  6
Continuous
 62
   255
370
    50
100
AcDbLine
 10
14748.2848240654
 20
5941.283327395055
 30
0.0
 11
14628.2848240654
 21
5941.283327395055
 31
0.0
  0
LINE
  5
280
330
1F
100
AcDbEntity
  8
SONOTA
  6
Continuous
 62
   255
370
    50
100
AcDbLine
 10
14748.2848240654
 20
5821.283327395054
 30
0.0
 11
14628.2848240654
 21
5821.283327395054
 31
0.0
  0
LINE
  5
281
330
1F
100
AcDbEntity
  8
SONOTA
  6
Continuous
 62
   255
370
    50
100
AcDbLine
 10
14628.2848240654
 20
5821.283327395054
 30
0.0
 11
14628.2848240654
 21
5941.283327395055
 31
0.0
  0
LINE
  5
282
330
1F
100
AcDbEntity
  8
SONOTA
  6
Continuous
 62
   255
370
    50
100
AcDbLine
 10
14748.2848240654
 20
5821.283327395054
 30
0.0
 11
14748.2848240654
 21
5941.283327395055
 31
0.0
  0
LINE
  5
283
330
1F
100
AcDbEntity
  8
SONOTA
  6
Continuous
 62
   255
370
    50
100
AcDbLine
 10
14798.2848240654
 20
6016.283327395055
 30
0.0
 11
14798.2848240654
 21
6066.283327395055
 31
0.0
  0
LINE
  5
284
330
1F
100
AcDbEntity
  8
kutai
  6
Continuous
 62
     1
370
    50
100
AcDbLine
 10
16350.7848240654
 20
5928.783327395053
 30
0.0
 11
17195.7848240654
 21
5928.783327395053
 31
0.0
  0
LINE
  5
285
330
1F
100
AcDbEntity
  8
SONOTA
  6
Continuous
 62
   255
370
    50
100
AcDbLine
 10
16303.2848240654
 20
6016.283327395055
 30
0.0
 11
16303.2848240654
 21
6066.283327395055
 31
0.0
  0
LINE
  5
286
330
1F
100
AcDbEntity
  8
sunpou
  6
Continuous
 62
   255
370
    50
100
AcDbLine
 10
18046.2873493824
 20
6080.780802078154
 30
0.0
 11
18145.2822987484
 21
5981.785852712053
 31
0.0
  0
LINE
  5
287
330
1F
100
AcDbEntity
  8
kutai
  6
Continuous
 62
     1
370
    50
100
AcDbLine
 10
14673.2848240654
 20
9566.283327395055
 30
0.0
 11
14673.2848240654
 21
7957.283327395055
 31
0.0
  0
LINE
  5
288
330
1F
100
AcDbEntity
  8
kutai
  6
Continuous
 62
     1
370
    50
100
AcDbLine
 10
14473.2848240654
 20
9566.283327395055
 30
0.0
 11
14473.2848240654
 21
7712.283327395055
 31
0.0
  0
LINE
  5
289
330
1F
100
AcDbEntity
  8
SONOTA
  6
Continuous
 62
   255
370
    50
100
AcDbLine
 10
14720.7848240654
 20
7701.283327395055
 30
0.0
 11
14720.7848240654
 21
6796.283327395054
 31
0.0
  0
LINE
  5
28A
330
1F
100
AcDbEntity
  8
SONOTA
  6
Continuous
 62
   255
370
    50
100
AcDbLine
 10
14688.2848240654
 20
6821.283327395054
 30
0.0
 11
14738.2848240654
 21
6821.283327395054
 31
0.0
  0
LINE
  5
28B
330
1F
100
AcDbEntity
  8
kutai
  6
Continuous
 62
     1
370
    50
100
AcDbLine
 10
14843.2848240654
 20
7701.283327395055
 30
0.0
 11
14843.2848240654
 21
7946.283327395054
 31
0.0
  0
LINE
  5
28C
330
1F
100
AcDbEntity
  8
kutai
  6
Continuous
 62
     1
370
    50
100
AcDbLine
 10
14843.2848240654
 20
7701.283327395055
 30
0.0
 11
14473.2848240654
 21
7701.283327395055
 31
0.0
  0
LINE
  5
28D
330
1F
100
AcDbEntity
  8
kutai
  6
Continuous
 62
     1
370
    50
100
AcDbLine
 10
14843.2848240654
 20
7946.283327395054
 30
0.0
 11
14673.2848240654
 21
7946.283327395054
 31
0.0
  0
LINE
  5
28E
330
1F
100
AcDbEntity
  8
kutai
  6
Continuous
 62
     1
370
    50
100
AcDbLine
 10
14673.2848240654
 20
9566.283327395055
 30
0.0
 11
14473.2848240654
 21
9566.283327395055
 31
0.0
  0
TEXT
  5
28F
330
1F
100
AcDbEntity
  8
sunpou
  6
Continuous
 62
   255
370
    25
100
AcDbText
 10
18080.7848240654
 20
8022.914095848653
 30
0.0
 40
200.0
  1
4,600
 50
89.99999999999992
 41
0.5
100
AcDbText
  0
LINE
  5
290
330
1F
100
AcDbEntity
  8
kutai
  6
Continuous
 62
     1
370
    50
100
AcDbLine
 10
16353.2848240654
 20
6771.283327395054
 30
0.0
 11
17195.7848240654
 21
6771.283327395054
 31
0.0
  0
LINE
  5
291
330
1F
100
AcDbEntity
  8
SONOTA
  6
Continuous
 62
   255
370
    50
100
AcDbLine
 10
16253.2848240654
 20
7071.283327395054
 30
0.0
 11
16525.7848240654
 21
7071.283327395054
 31
0.0
  0
CIRCLE
  5
292
330
1F
100
AcDbEntity
  8
SONOTA
  6
Continuous
 62
   255
370
    50
100
AcDbCircle
 10
16403.2848240654
 20
6921.283327395054
 30
0.0
 40
50.0
  0
CIRCLE
  5
293
330
1F
100
AcDbEntity
  8
SONOTA
  6
Continuous
 62
   255
370
    50
100
AcDbCircle
 10
16403.2848240654
 20
6921.283327395054
 30
0.0
 40
75.0
  0
LINE
  5
294
330
1F
100
AcDbEntity
  8
SONOTA
  6
Continuous
 62
   255
370
    50
100
AcDbLine
 10
16919.7318437564
 20
6821.283327395054
 30
0.0
 11
16869.7318437564
 21
6821.283327395054
 31
0.0
  0
LINE
  5
295
330
1F
100
AcDbEntity
  8
sunpou
  6
Continuous
 62
   255
370
    50
100
AcDbLine
 10
18346.2873493824
 20
6080.780802078054
 30
0.0
 11
18445.2822987484
 21
5981.785852711954
 31
0.0
  0
LINE
  5
296
330
1F
100
AcDbEntity
  8
sunpou
  6
Continuous
 62
   255
370
    50
100
AcDbLine
 10
16773.2848240654
 20
16851.28332739466
 30
0.0
 11
16773.2848240654
 21
15951.28332739466
 31
0.0
  0
LINE
  5
297
330
1F
100
AcDbEntity
  8
sunpou
  6
Continuous
 62
   255
370
    50
100
AcDbLine
 10
14573.2848240654
 20
16551.28332739466
 30
0.0
 11
14573.2848240654
 21
15951.28332739466
 31
0.0
  0
LINE
  5
298
330
1F
100
AcDbEntity
  8
sunpou
  6
Continuous
 62
   255
370
    50
100
AcDbLine
 10
18395.7848240654
 20
14481.28332739466
 30
0.0
 11
17495.7848240654
 21
14481.28332739466
 31
0.0
  0
TEXT
  5
299
330
1F
100
AcDbEntity
  8
sunpou
  6
Continuous
 62
   255
370
    25
100
AcDbText
 10
18080.7848240654
 20
12833.59247975166
 30
0.0
 40
200.0
  1
2,550
 50
89.99999999999992
 41
0.5
100
AcDbText
  0
LINE
  5
29A
330
1F
100
AcDbEntity
  8
SONOTA
  6
Continuous
 62
   255
370
    50
100
AcDbLine
 10
14565.7848240654
 20
12201.28332739466
 30
0.0
 11
14565.7848240654
 21
12991.28332739466
 31
0.0
  0
LINE
  5
29B
330
1F
100
AcDbEntity
  8
SONOTA
  6
Continuous
 62
   255
370
    50
100
AcDbLine
 10
14538.2848240654
 20
12201.28332739466
 30
0.0
 11
14538.2848240654
 21
13731.28332739466
 31
0.0
  0
LINE
  5
29C
330
1F
100
AcDbEntity
  8
SONOTA
  6
Continuous
 62
   255
370
    50
100
AcDbLine
 10
14608.2848240654
 20
12201.28332739466
 30
0.0
 11
14608.2848240654
 21
13731.28332739466
 31
0.0
  0
LINE
  5
29D
330
1F
100
AcDbEntity
  8
SONOTA
  6
Continuous
 62
   255
370
    50
100
AcDbLine
 10
14580.7848240654
 20
11396.28332739466
 30
0.0
 11
14580.7848240654
 21
10456.28332739465
 31
0.0
  0
LINE
  5
29E
330
1F
100
AcDbEntity
  8
SONOTA
  6
Continuous
 62
   255
370
    50
100
AcDbLine
 10
14548.2848240654
 20
10481.28332739465
 30
0.0
 11
14598.2848240654
 21
10481.28332739465
 31
0.0
  0
LINE
  5
29F
330
1F
100
AcDbEntity
  8
kutai
  6
Continuous
 62
     1
370
    50
100
AcDbLine
 10
14673.2848240654
 20
11396.28332739466
 30
0.0
 11
14673.2848240654
 21
12201.28332739466
 31
0.0
  0
LINE
  5
2A0
330
1F
100
AcDbEntity
  8
kutai
  6
Continuous
 62
     1
370
    50
100
AcDbLine
 10
14473.2848240654
 20
12201.28332739466
 30
0.0
 11
14473.2848240654
 21
11396.28332739466
 31
0.0
  0
LINE
  5
2A1
330
1F
100
AcDbEntity
  8
kutai
  6
Continuous
 62
     1
370
    50
100
AcDbLine
 10
14473.2848240654
 20
11396.28332739466
 30
0.0
 11
14673.2848240654
 21
11396.28332739466
 31
0.0
  0
LINE
  5
2A2
330
1F
100
AcDbEntity
  8
kutai
  6
Continuous
 62
     1
370
    50
100
AcDbLine
 10
14673.2848240654
 20
12201.28332739466
 30
0.0
 11
14473.2848240654
 21
12201.28332739466
 31
0.0
  0
TEXT
  5
2A3
330
1F
100
AcDbEntity
  8
sunpou
  6
Continuous
 62
   255
370
    25
100
AcDbText
 10
18080.7848240654
 20
10934.66103949666
 30
0.0
 40
200.0
  1
1,300
 50
89.99999999999992
 41
0.5
100
AcDbText
  0
LINE
  5
2A4
330
1F
100
AcDbEntity
  8
sunpou
  6
Continuous
 62
   255
370
    50
100
AcDbLine
 10
18046.2873493824
 20
10680.78080207766
 30
0.0
 11
18145.2822987484
 21
10581.78585271166
 31
0.0
  0
LINE
  5
2A5
330
1F
100
AcDbEntity
  8
sunpou
  6
Continuous
 62
   255
370
    50
100
AcDbLine
 10
18095.7848240654
 20
10631.28332739465
 30
0.0
 11
17495.7848240654
 21
10631.28332739465
 31
0.0
  0
LINE
  5
2A6
330
1F
100
AcDbEntity
  8
sunpou
  6
Continuous
 62
   255
370
    50
100
AcDbLine
 10
18095.7848240654
 20
11931.28332739466
 30
0.0
 11
17495.7848240654
 21
11931.28332739466
 31
0.0
  0
LINE
  5
2A7
330
1F
100
AcDbEntity
  8
sunpou
  6
Continuous
 62
   255
370
    50
100
AcDbLine
 10
18046.2873493824
 20
11980.78080207765
 30
0.0
 11
18145.2822987484
 21
11881.78585271166
 31
0.0
  0
LINE
  5
2A8
330
1F
100
AcDbEntity
  8
SONOTA
  6
Continuous
 62
   255
370
    50
100
AcDbLine
 10
14723.2858240654
 20
14506.28332739466
 30
0.0
 11
16303.2878240654
 21
14506.28332739466
 31
0.0
  0
LINE
  5
2A9
330
1F
100
AcDbEntity
  8
SONOTA
  6
Continuous
 62
   255
370
    50
100
AcDbLine
 10
16303.2878240654
 20
14456.28332739466
 30
0.0
 11
14723.2858240654
 21
14456.28332739466
 31
0.0
  0
LINE
  5
2AA
330
1F
100
AcDbEntity
  8
kutai
  6
Continuous
 62
     1
370
    50
100
AcDbLine
 10
14673.2848240654
 20
15282.45847144666
 30
0.0
 11
14673.2848240654
 21
13731.28332739466
 31
0.0
  0
LINE
  5
2AB
330
1F
100
AcDbEntity
  8
SONOTA
  6
Continuous
 62
   255
370
    50
100
AcDbLine
 10
14580.7848240654
 20
13731.28332739466
 30
0.0
 11
14580.7848240654
 21
12941.28332739466
 31
0.0
  0
LINE
  5
2AC
330
1F
100
AcDbEntity
  8
SONOTA
  6
Continuous
 62
   255
370
    50
100
AcDbLine
 10
14548.2848240654
 20
12966.28332739466
 30
0.0
 11
14598.2848240654
 21
12966.28332739466
 31
0.0
  0
LINE
  5
2AD
330
1F
100
AcDbEntity
  8
kutai
  6
Continuous
 62
     1
370
    50
100
AcDbLine
 10
14473.2848240654
 20
14412.28332739466
 30
0.0
 11
14473.2848240654
 21
13731.28332739466
 31
0.0
  0
LINE
  5
2AE
330
1F
100
AcDbEntity
  8
kutai
  6
Continuous
 62
     1
370
    50
100
AcDbLine
 10
14473.2848240654
 20
13731.28332739466
 30
0.0
 11
14673.2848240654
 21
13731.28332739466
 31
0.0
  0
LINE
  5
2AF
330
1F
100
AcDbEntity
  8
kutai
  6
Continuous
 62
     1
370
    50
100
AcDbLine
 10
14473.2848240654
 20
15282.45847144666
 30
0.0
 11
14473.2848240654
 21
14551.28332739466
 31
0.0
  0
LINE
  5
2B0
330
1F
100
AcDbEntity
  8
SONOTA
  6
Continuous
 62
   255
370
    50
100
AcDbLine
 10
14723.2858240654
 20
14506.28332739466
 30
0.0
 11
14723.2858240654
 21
14456.28332739466
 31
0.0
  0
LINE
  5
2B1
330
1F
100
AcDbEntity
  8
SONOTA
  6
Continuous
 62
   255
370
    50
100
AcDbLine
 10
14723.2858240654
 20
14506.28332739466
 30
0.0
 11
14723.2858240654
 21
14456.28332739466
 31
0.0
  0
LINE
  5
2B2
330
1F
100
AcDbEntity
  8
kutai
  6
Continuous
 62
     1
370
    50
100
AcDbLine
 10
17195.7848240654
 20
13728.78332739466
 30
0.0
 11
17195.7848240654
 21
14571.28332739466
 31
0.0
  0
LINE
  5
2B3
330
1F
100
AcDbEntity
  8
kutai
  6
Continuous
 62
     1
370
    50
100
AcDbLine
 10
16353.2848240654
 20
13731.28332739466
 30
0.0
 11
16353.2848240654
 21
14571.28332739466
 31
0.0
  0
LINE
  5
2B4
330
1F
100
AcDbEntity
  8
kutai
  6
Continuous
 62
     1
370
    50
100
AcDbLine
 10
16353.2848240654
 20
13731.28332739466
 30
0.0
 11
17195.7848240654
 21
13731.28332739466
 31
0.0
  0
LINE
  5
2B5
330
1F
100
AcDbEntity
  8
SONOTA
  6
Continuous
 62
   255
370
    50
100
AcDbLine
 10
16919.7318437564
 20
13681.28332739466
 30
0.0
 11
16869.7318437564
 21
13681.28332739466
 31
0.0
  0
LINE
  5
2B6
330
1F
100
AcDbEntity
  8
kutai
  6
Continuous
 62
     1
370
    50
100
AcDbLine
 10
16353.2848240654
 20
14571.28332739466
 30
0.0
 11
17195.7848240654
 21
14571.28332739466
 31
0.0
  0
LINE
  5
2B7
330
1F
100
AcDbEntity
  8
SONOTA
  6
Continuous
 62
   255
370
    50
100
AcDbLine
 10
16873.2848240654
 20
15282.45847144666
 30
0.0
 11
16873.2848240654
 21
14621.28332739466
 31
0.0
  0
LINE
  5
2B8
330
1F
100
AcDbEntity
  8
SONOTA
  6
Continuous
 62
   255
370
    50
100
AcDbLine
 10
16923.2848240654
 20
15282.45847144666
 30
0.0
 11
16923.2848240654
 21
14621.28332739466
 31
0.0
  0
LINE
  5
2B9
330
1F
100
AcDbEntity
  8
SONOTA
  6
Continuous
 62
   255
370
    50
100
AcDbLine
 10
16625.7848240654
 20
15282.45847144666
 30
0.0
 11
16625.7848240654
 21
14571.28332739466
 31
0.0
  0
LINE
  5
2BA
330
1F
100
AcDbEntity
  8
SONOTA
  6
Continuous
 62
   255
370
    50
100
AcDbLine
 10
16525.7848240654
 20
15282.45847144666
 30
0.0
 11
16525.7848240654
 21
14571.28332739466
 31
0.0
  0
LINE
  5
2BB
330
1F
100
AcDbEntity
  8
SONOTA
  6
Continuous
 62
   255
370
    50
100
AcDbLine
 10
16303.2878240654
 20
14456.28332739466
 30
0.0
 11
16303.2878240654
 21
14506.28332739466
 31
0.0
  0
LINE
  5
2BC
330
1F
100
AcDbEntity
  8
SONOTA
  6
Continuous
 62
   255
370
    50
100
AcDbLine
 10
16923.2848240654
 20
14621.28332739466
 30
0.0
 11
16873.2848240654
 21
14621.28332739466
 31
0.0
  0
LINE
  5
2BD
330
1F
100
AcDbEntity
  8
SONOTA
  6
Continuous
 62
   255
370
    50
100
AcDbLine
 10
17195.7848240654
 20
14571.28332739466
 30
0.0
 11
17195.7848240654
 21
15282.45847144666
 31
0.0
  0
LINE
  5
2BE
330
1F
100
AcDbEntity
  8
sunpou
  6
Continuous
 62
   255
370
    50
100
AcDbLine
 10
18046.2873493824
 20
14530.78080207765
 30
0.0
 11
18145.2822987484
 21
14431.78585271166
 31
0.0
  0
LINE
  5
2BF
330
1F
100
AcDbEntity
  8
sunpou
  6
Continuous
 62
   255
370
    50
100
AcDbLine
 10
18346.2873493824
 20
14530.78080207765
 30
0.0
 11
18445.2822987484
 21
14431.78585271166
 31
0.0
  0
TEXT
  5
2C0
330
1F
100
AcDbEntity
  8
sunpou
  6
Continuous
 62
   255
370
    25
100
AcDbText
 10
15332.9241815574
 20
16569.55949882566
 30
0.0
 40
200.0
  1
2,200
 41
0.5
100
AcDbText
  0
LINE
  5
2C1
330
1F
100
AcDbEntity
  8
sunpou
  6
Continuous
 62
   255
370
    50
100
AcDbLine
 10
14523.7873493824
 20
16501.78585271166
 30
0.0
 11
14622.7822987484
 21
16600.78080207765
 31
0.0
  0
LINE
  5
2C2
330
1F
100
AcDbEntity
  8
sunpou
  6
Continuous
 62
   255
370
    50
100
AcDbLine
 10
16723.7873493824
 20
16501.78585271166
 30
0.0
 11
16822.7822987484
 21
16600.78080207765
 31
0.0
  0
LINE
  5
2C3
330
1F
100
AcDbEntity
  8
sunpou
  6
Continuous
 62
   255
370
    50
100
AcDbLine
 10
16723.7873493824
 20
16801.78585271166
 30
0.0
 11
16822.7822987484
 21
16900.78080207765
 31
0.0
  0
TEXT
  5
2C4
330
1F
100
AcDbEntity
  8
MOJI
  6
Continuous
 62
   255
370
    25
100
AcDbText
 10
7011.484547067901
 20
1432.972097100355
 30
0.0
 40
400.0
  1
マンション住戸 平面図　
100
AcDbText
  0
LINE
  5
2C5
330
1F
100
AcDbEntity
  8
SONOTA
  6
Continuous
 62
   255
370
    50
100
AcDbLine
 10
7968.1038240655
 20
6554.283327395055
 30
0.0
 11
8527.854824065502
 21
6554.283327395055
 31
0.0
  0
LINE
  5
2C6
330
1F
100
AcDbEntity
  8
kutai
  6
Continuous
 62
     1
370
    50
100
AcDbLine
 10
4843.284824065501
 20
15076.28332739466
 30
0.0
 11
5463.2848240655
 21
15076.28332739466
 31
0.0
  0
LINE
  5
2C7
330
1F
100
AcDbEntity
  8
kutai
  6
Continuous
 62
     1
370
    50
100
AcDbLine
 10
4843.284824065501
 20
14226.28332739466
 30
0.0
 11
5463.2848240655
 21
14226.28332739466
 31
0.0
  0
LINE
  5
2C8
330
1F
100
AcDbEntity
  8
kutai
  6
Continuous
 62
     1
370
    50
100
AcDbLine
 10
4843.2848240655
 20
14076.28332739466
 30
0.0
 11
5463.2848240655
 21
14076.28332739466
 31
0.0
  0
LINE
  5
2C9
330
1F
100
AcDbEntity
  8
kutai
  6
Continuous
 62
     1
370
    50
100
AcDbLine
 10
4843.2848240655
 20
12926.28332739466
 30
0.0
 11
5463.2848240655
 21
12926.28332739466
 31
0.0
  0
LINE
  5
2CA
330
1F
100
AcDbEntity
  8
SONOTA
  6
Continuous
 62
   255
370
    50
100
AcDbLine
 10
7650.784824065501
 20
6489.283327395055
 30
0.0
 11
9884.7748240655
 21
6489.283327395055
 31
0.0
  0
LINE
  5
2CB
330
1F
100
AcDbEntity
  8
SONOTA
  6
Continuous
 62
   255
370
    50
100
AcDbLine
 10
9205.342823065501
 20
11937.67132739466
 30
0.0
 11
9205.342823065501
 21
12066.57132739466
 31
0.0
  0
LINE
  5
2CC
330
1F
100
AcDbEntity
  8
SONOTA
  6
Continuous
 62
   255
370
    50
100
AcDbLine
 10
4268.2848240655
 20
12926.28332739466
 30
0.0
 11
4843.2848240655
 21
12926.28332739466
 31
0.0
  0
LINE
  5
2CD
330
1F
100
AcDbEntity
  8
SONOTA
  6
Continuous
 62
   255
370
    50
100
AcDbLine
 10
4268.2848240655
 20
14076.28332739466
 30
0.0
 11
4843.2848240655
 21
14076.28332739466
 31
0.0
  0
LINE
  5
2CE
330
1F
100
AcDbEntity
  8
SONOTA
  6
Continuous
 62
   255
370
    50
100
AcDbLine
 10
4418.284824064001
 20
14226.28332739466
 30
0.0
 11
4843.284824065501
 21
14226.28332739466
 31
0.0
  0
LINE
  5
2CF
330
1F
100
AcDbEntity
  8
SONOTA
  6
Continuous
 62
   255
370
    50
100
AcDbLine
 10
4418.284824063901
 20
15076.28332739466
 30
0.0
 11
4843.2848240655
 21
15076.28332739466
 31
0.0
  0
VIEWPORT
  5
2A
330
1B
100
AcDbEntity
 67
     1
  8
0
100
AcDbViewport
 10
14850.0
 20
10500.0
 30
0.0
 40
29700.0
 41
21000.0
 68
     1
 69
     1
 12
14850.0
 22
10500.0
 13
0.0
 23
0.0
 14
0.5
 24
0.5
 15
0.5
 25
0.5
 16
0.0
 26
0.0
 36
1.0
 17
0.0
 27
0.0
 37
0.0
 42
50.0
 43
0.0
 44
0.0
 45
9.0
 50
0.0
 51
0.0
 72
   100
 90
    32800
  1

281
     0
 71
     1
 74
     0
110
0.0
120
0.0
130
0.0
111
1.0
121
0.0
131
0.0
112
0.0
122
1.0
132
0.0
 79
     0
146
0.0
  0
ENDSEC
  0
SECTION
  2
OBJECTS
  0
DICTIONARY
  5
C
330
0
100
AcDbDictionary
281
     1
  3
ACAD_GROUP
350
D
  3
ACAD_LAYOUT
350
1A
  3
ACAD_MLINESTYLE
350
17
  3
ACAD_PLOTSETTINGS
350
19
  3
ACAD_PLOTSTYLENAME
350
E
  3
AcDbVariableDictionary
350
2D0
  0
DICTIONARY
  5
D
102
{ACAD_REACTORS
330
C
102
}
330
C
100
AcDbDictionary
281
     1
  0
DICTIONARY
  5
1A
102
{ACAD_REACTORS
330
C
102
}
330
C
100
AcDbDictionary
281
     1
  3
Layout1
350
1E
  3
Layout2
350
26
  3
Model
350
22
  0
DICTIONARY
  5
17
102
{ACAD_REACTORS
330
C
102
}
330
C
100
AcDbDictionary
281
     1
  3
Standard
350
18
  0
DICTIONARY
  5
19
102
{ACAD_REACTORS
330
C
102
}
330
C
100
AcDbDictionary
281
     1
  0
ACDBDICTIONARYWDFLT
  5
E
102
{ACAD_REACTORS
330
C
102
}
330
C
100
AcDbDictionary
281
     1
  3
Normal
350
F
100
AcDbDictionaryWithDefault
340
F
  0
DICTIONARY
  5
2D0
102
{ACAD_REACTORS
330
C
102
}
330
C
100
AcDbDictionary
281
     1
  3
DIMASSOC
350
2D1
  0
LAYOUT
  5
1E
102
{ACAD_REACTORS
330
1A
102
}
330
1A
100
AcDbPlotSettings
  1

  2

  4

  6

 40
0.0
 41
0.0
 42
0.0
 43
0.0
 44
0.0
 45
0.0
 46
0.0
 47
0.0
 48
0.0
 49
0.0
140
0.0
141
0.0
142
1.0
143
1.0
 70
   688
 72
     0
 73
     0
 74
     5
  7

 75
    16
147
1.0
148
0.0
149
0.0
100
AcDbLayout
  1
Layout1
 70
     1
 71
     1
 10
0.0
 20
0.0
 11
297.0
 21
210.0
 12
0.0
 22
0.0
 32
0.0
 14
0.0
 24
0.0
 34
0.0
 15
297.0
 25
210.0
 35
0.0
146
0.0
 13
0.0
 23
0.0
 33
0.0
 16
1.0
 26
0.0
 36
0.0
 17
0.0
 27
1.0
 37
0.0
 76
     0
330
1B
331
2A
  0
LAYOUT
  5
26
102
{ACAD_REACTORS
330
1A
102
}
330
1A
100
AcDbPlotSettings
  1

  2

  4

  6

 40
0.0
 41
0.0
 42
0.0
 43
0.0
 44
0.0
 45
0.0
 46
0.0
 47
0.0
 48
0.0
 49
0.0
140
0.0
141
0.0
142
1.0
143
1.0
 70
   688
 72
     0
 73
     0
 74
     5
  7

 75
    16
147
1.0
148
0.0
149
0.0
100
AcDbLayout
  1
Layout2
 70
     1
 71
     2
 10
0.0
 20
0.0
 11
0.0
 21
0.0
 12
0.0
 22
0.0
 32
0.0
 14
0.0
 24
0.0
 34
0.0
 15
0.0
 25
0.0
 35
0.0
146
0.0
 13
0.0
 23
0.0
 33
0.0
 16
1.0
 26
0.0
 36
0.0
 17
0.0
 27
1.0
 37
0.0
 76
     0
330
23
  0
LAYOUT
  5
22
102
{ACAD_REACTORS
330
1A
102
}
330
1A
100
AcDbPlotSettings
  1

  2

  4

  6

 40
0.0
 41
0.0
 42
0.0
 43
0.0
 44
0.0
 45
0.0
 46
0.0
 47
0.0
 48
0.0
 49
0.0
140
0.0
141
0.0
142
1.0
143
1.0
 70
  1712
 72
     0
 73
     0
 74
     0
  7

 75
     0
147
1.0
148
0.0
149
0.0
100
AcDbLayout
  1
Model
 70
     1
 71
     0
 10
0.0
 20
0.0
 11
29700.0
 21
21000.0
 12
0.0
 22
0.0
 32
0.0
 14
0.0
 24
0.0
 34
0.0
 15
29700.0
 25
21000.0
 35
0.0
146
0.0
 13
0.0
 23
0.0
 33
0.0
 16
1.0
 26
0.0
 36
0.0
 17
0.0
 27
1.0
 37
0.0
 76
     0
330
1F
  0
MLINESTYLE
  5
18
102
{ACAD_REACTORS
330
17
102
}
330
17
100
AcDbMlineStyle
  2
Standard
 70
     0
  3

 62
   256
 51
90.0
 52
90.0
 71
     2
 49
0.5
 62
   256
  6
BYLAYER
 49
-0.5
 62
   256
  6
BYLAYER
  0
ACDBPLACEHOLDER
  5
F
102
{ACAD_REACTORS
330
E
102
}
330
E
  0
DICTIONARYVAR
  5
2D1
102
{ACAD_REACTORS
330
2D0
102
}
330
2D0
100
DictionaryVariables
280
     0
  1
1
  0
ENDSEC
  0
EOF
