  0
SECTION
  2
HEADER
  9
$ACADVER
  1
AC1015
  9
$ACADMAINTVER
 70
     6
  9
$DWGCODEPAGE
  3
ANSI_932
  9
$INSBASE
 10
0.0
 20
0.0
 30
0.0
  9
$EXTMIN
 10
0.0
 20
0.0
 30
0.0
  9
$EXTMAX
 10
29700.0
 20
21000.0
 30
0.0
  9
$LIMMIN
 10
0.0
 20
0.0
  9
$LIMMAX
 10
29700.0
 20
21000.0
  9
$ORTHOMODE
 70
     0
  9
$REGENMODE
 70
     1
  9
$FILLMODE
 70
     1
  9
$QTEXTMODE
 70
     0
  9
$MIRRTEXT
 70
     1
  9
$LTSCALE
 40
25.0
  9
$ATTMODE
 70
     1
  9
$TEXTSIZE
 40
500.0
  9
$TRACEWID
 40
0.05
  9
$TEXTSTYLE
  7
Standard
  9
$CLAYER
  8
0
  9
$CELTYPE
  6
ByLayer
  9
$CECOLOR
 62
   256
  9
$CELTSCALE
 40
1.0
  9
$DISPSILH
 70
     0
  9
$DIMSCALE
 40
100.0
  9
$DIMASZ
 40
5.0
  9
$DIMEXO
 40
2.0
  9
$DIMDLI
 40
10.0
  9
$DIMRND
 40
0.0
  9
$DIMDLE
 40
0.0
  9
$DIMEXE
 40
2.0
  9
$DIMTP
 40
0.0
  9
$DIMTM
 40
0.0
  9
$DIMTXT
 40
5.0
  9
$DIMCEN
 40
0.09
  9
$DIMTSZ
 40
0.0
  9
$DIMTOL
 70
     0
  9
$DIMLIM
 70
     0
  9
$DIMTIH
 70
     0
  9
$DIMTOH
 70
     0
  9
$DIMSE1
 70
     0
  9
$DIMSE2
 70
     0
  9
$DIMTAD
 70
     3
  9
$DIMZIN
 70
     8
  9
$DIMBLK
  1

  9
$DIMASO
 70
     1
  9
$DIMSHO
 70
     1
  9
$DIMPOST
  1

  9
$DIMAPOST
  1

  9
$DIMALT
 70
     0
  9
$DIMALTD
 70
     2
  9
$DIMALTF
 40
25.4
  9
$DIMLFAC
 40
1.0
  9
$DIMTOFL
 70
     1
  9
$DIMTVP
 40
0.7
  9
$DIMTIX
 70
     0
  9
$DIMSOXD
 70
     0
  9
$DIMSAH
 70
     0
  9
$DIMBLK1
  1

  9
$DIMBLK2
  1

  9
$DIMSTYLE
  2
Standard
  9
$DIMCLRD
 70
     0
  9
$DIMCLRE
 70
     0
  9
$DIMCLRT
 70
     0
  9
$DIMTFAC
 40
0.5
  9
$DIMGAP
 40
0.09
  9
$DIMJUST
 70
     0
  9
$DIMSD1
 70
     0
  9
$DIMSD2
 70
     0
  9
$DIMTOLJ
 70
     1
  9
$DIMTZIN
 70
     8
  9
$DIMALTZ
 70
     0
  9
$DIMALTTZ
 70
     0
  9
$DIMUPT
 70
     1
  9
$DIMDEC
 70
     2
  9
$DIMTDEC
 70
     4
  9
$DIMALTU
 70
     2
  9
$DIMALTTD
 70
     2
  9
$DIMTXSTY
  7
Standard
  9
$DIMAUNIT
 70
     0
  9
$DIMADEC
 70
     0
  9
$DIMALTRND
 40
0.0
  9
$DIMAZIN
 70
     0
  9
$DIMDSEP
 70
    46
  9
$DIMATFIT
 70
     2
  9
$DIMFRAC
 70
     0
  9
$DIMLDRBLK
  1

  9
$DIMLUNIT
 70
     2
  9
$DIMLWD
 70
    -2
  9
$DIMLWE
 70
    -2
  9
$DIMTMOVE
 70
     2
  9
$LUNITS
 70
     2
  9
$LUPREC
 70
     4
  9
$SKETCHINC
 40
0.1
  9
$FILLETRAD
 40
0.5
  9
$AUNITS
 70
     0
  9
$AUPREC
 70
     0
  9
$MENU
  1
.
  9
$ELEVATION
 40
0.0
  9
$PELEVATION
 40
0.0
  9
$THICKNESS
 40
0.0
  9
$LIMCHECK
 70
     0
  9
$CHAMFERA
 40
0.5
  9
$CHAMFERB
 40
0.5
  9
$CHAMFERC
 40
1.0
  9
$CHAMFERD
 40
0.0
  9
$SKPOLY
 70
     0
  9
$TDCREATE
 40
2454270.28349537
  9
$TDUCREATE
 40
2454269.90849537
  9
$TDUPDATE
 40
2454270.28349537
  9
$TDUUPDATE
 40
2454269.90849537
  9
$TDINDWG
 40
0.0000000116
  9
$TDUSRTIMER
 40
0.0000000116
  9
$USRTIMER
 70
     1
  9
$ANGBASE
 50
0.0
  9
$ANGDIR
 70
     0
  9
$PDMODE
 70
     0
  9
$PDSIZE
 40
0.0
  9
$PLINEWID
 40
0.0
  9
$SPLFRAME
 70
     0
  9
$SPLINETYPE
 70
     6
  9
$SPLINESEGS
 70
     8
  9
$HANDSEED
  5
677
  9
$SURFTAB1
 70
     6
  9
$SURFTAB2
 70
     6
  9
$SURFTYPE
 70
     6
  9
$SURFU
 70
     6
  9
$SURFV
 70
     6
  9
$UCSBASE
  2

  9
$UCSNAME
  2

  9
$UCSORG
 10
0.0
 20
0.0
 30
0.0
  9
$UCSXDIR
 10
1.0
 20
0.0
 30
0.0
  9
$UCSYDIR
 10
0.0
 20
1.0
 30
0.0
  9
$UCSORTHOREF
  2

  9
$UCSORTHOVIEW
 70
     0
  9
$UCSORGTOP
 10
0.0
 20
0.0
 30
0.0
  9
$UCSORGBOTTOM
 10
0.0
 20
0.0
 30
0.0
  9
$UCSORGLEFT
 10
0.0
 20
0.0
 30
0.0
  9
$UCSORGRIGHT
 10
0.0
 20
0.0
 30
0.0
  9
$UCSORGFRONT
 10
0.0
 20
0.0
 30
0.0
  9
$UCSORGBACK
 10
0.0
 20
0.0
 30
0.0
  9
$PUCSBASE
  2

  9
$PUCSNAME
  2

  9
$PUCSORG
 10
0.0
 20
0.0
 30
0.0
  9
$PUCSXDIR
 10
1.0
 20
0.0
 30
0.0
  9
$PUCSYDIR
 10
0.0
 20
1.0
 30
0.0
  9
$PUCSORTHOREF
  2

  9
$PUCSORTHOVIEW
 70
     0
  9
$PUCSORGTOP
 10
0.0
 20
0.0
 30
0.0
  9
$PUCSORGBOTTOM
 10
0.0
 20
0.0
 30
0.0
  9
$PUCSORGLEFT
 10
0.0
 20
0.0
 30
0.0
  9
$PUCSORGRIGHT
 10
0.0
 20
0.0
 30
0.0
  9
$PUCSORGFRONT
 10
0.0
 20
0.0
 30
0.0
  9
$PUCSORGBACK
 10
0.0
 20
0.0
 30
0.0
  9
$USERI1
 70
     0
  9
$USERI2
 70
     0
  9
$USERI3
 70
     0
  9
$USERI4
 70
     0
  9
$USERI5
 70
     0
  9
$USERR1
 40
0.0
  9
$USERR2
 40
0.0
  9
$USERR3
 40
0.0
  9
$USERR4
 40
0.0
  9
$USERR5
 40
0.0
  9
$WORLDVIEW
 70
     1
  9
$SHADEDGE
 70
     3
  9
$SHADEDIF
 70
    70
  9
$TILEMODE
 70
     1
  9
$MAXACTVP
 70
    64
  9
$PINSBASE
 10
0.0
 20
0.0
 30
0.0
  9
$PLIMCHECK
 70
     0
  9
$PEXTMIN
 10
0.0
 20
0.0
 30
0.0
  9
$PEXTMAX
 10
297.0
 20
210.0
 30
0.0
  9
$PLIMMIN
 10
0.0
 20
0.0
  9
$PLIMMAX
 10
297.0
 20
210.0
  9
$UNITMODE
 70
     0
  9
$VISRETAIN
 70
     1
  9
$PLINEGEN
 70
     0
  9
$PSLTSCALE
 70
     1
  9
$TREEDEPTH
 70
  3020
  9
$CMLSTYLE
  2
Standard
  9
$CMLJUST
 70
     0
  9
$CMLSCALE
 40
1.0
  9
$PROXYGRAPHICS
 70
     1
  9
$MEASUREMENT
 70
     1
  9
$CELWEIGHT
370
    -1
  9
$ENDCAPS
280
     0
  9
$JOINSTYLE
280
     0
  9
$LWDISPLAY
290
     0
  9
$INSUNITS
 70
     1
  9
$HYPERLINKBASE
  1

  9
$STYLESHEET
  1

  9
$XEDIT
290
     1
  9
$CEPSNTYPE
380
     0
  9
$PSTYLEMODE
290
     1
  9
$FINGERPRINTGUID
  2
{CACBB17A-90DC-484C-9336-49F92616A0F5}
  9
$VERSIONGUID
  2
{FAEB1C32-E019-11D5-929B-00C0DF256EC4}
  9
$EXTNAMES
290
     1
  9
$PSVPSCALE
 40
0.0
  9
$OLESTARTUP
290
     0
  0
ENDSEC
  0
SECTION
  2
CLASSES
  0
CLASS
  1
ACDBDICTIONARYWDFLT
  2
AcDbDictionaryWithDefault
  3
ObjectDBX Classes
 90
        0
280
     0
281
     0
  0
CLASS
  1
DICTIONARYVAR
  2
AcDbDictionaryVar
  3
ObjectDBX Classes
 90
        0
280
     0
281
     0
  0
CLASS
  1
ACDBPLACEHOLDER
  2
AcDbPlaceHolder
  3
ObjectDBX Classes
 90
        0
280
     0
281
     0
  0
CLASS
  1
LAYOUT
  2
AcDbLayout
  3
ObjectDBX Classes
 90
        0
280
     0
281
     0
  0
ENDSEC
  0
SECTION
  2
TABLES
  0
TABLE
  2
VPORT
  5
8
330
0
100
AcDbSymbolTable
 70
     1
  0
VPORT
  5
29
330
8
100
AcDbSymbolTableRecord
100
AcDbViewportTableRecord
  2
*Active
 70
     0
 10
0.0
 20
0.0
 11
1.0
 21
1.0
 12
10.42990654205607
 22
4.5
 13
0.0
 23
0.0
 14
0.5
 24
0.5
 15
0.5
 25
0.5
 16
0.0
 26
0.0
 36
1.0
 17
0.0
 27
0.0
 37
0.0
 40
9.0
 41
1.972972972850329
 42
50.0
 43
0.0
 44
0.0
 50
0.0
 51
0.0
 71
     0
 72
   100
 73
     1
 74
     3
 75
     0
 76
     0
 77
     0
 78
     0
281
     0
 65
     1
110
0.0
120
0.0
130
0.0
111
1.0
121
0.0
131
0.0
112
0.0
122
1.0
132
0.0
 79
     0
146
0.0
  0
ENDTAB
  0
TABLE
  2
LTYPE
  5
5
330
0
100
AcDbSymbolTable
 70
     8
  0
LTYPE
  5
14
330
5
100
AcDbSymbolTableRecord
100
AcDbLinetypeTableRecord
  2
ByBlock
 70
     0
  3

 72
    65
 73
     0
 40
0.0
  0
LTYPE
  5
15
330
5
100
AcDbSymbolTableRecord
100
AcDbLinetypeTableRecord
  2
ByLayer
 70
     0
  3

 72
    65
 73
     0
 40
0.0
  0
LTYPE
  5
16
330
5
100
AcDbSymbolTableRecord
100
AcDbLinetypeTableRecord
  2
Continuous
 70
     0
  3
Solid line
 72
    65
 73
     0
 40
0.0
  0
LTYPE
  5
68
330
5
100
AcDbSymbolTableRecord
100
AcDbLinetypeTableRecord
  2
DOT
 70
     0
  3
Dot . . . . . . . . . . . . . . . . . . . . . .
 72
    65
 73
     2
 40
6.35
 49
0.0
 74
     0
 49
-6.35
 74
     0
  0
LTYPE
  5
69
330
5
100
AcDbSymbolTableRecord
100
AcDbLinetypeTableRecord
  2
HIDDEN
 70
     0
  3
Hidden __ __ __ __ __ __ __ __ __ __ __ __ __ _
 72
    65
 73
     2
 40
9.525
 49
6.35
 74
     0
 49
-3.175
 74
     0
  0
LTYPE
  5
6A
330
5
100
AcDbSymbolTableRecord
100
AcDbLinetypeTableRecord
  2
HIDDEN2
 70
     0
  3
Hidden (.5x) _ _ _ _ _ _ _ _ _ _ _ _ _ _ _ _ _
 72
    65
 73
     2
 40
4.7625
 49
3.175
 74
     0
 49
-1.5875
 74
     0
  0
LTYPE
  5
6B
330
5
100
AcDbSymbolTableRecord
100
AcDbLinetypeTableRecord
  2
CENTER
 70
     0
  3
Center ____ _ ____ _ ____ _ ____ _ ____ _ ____
 72
    65
 73
     4
 40
50.8
 49
31.75
 74
     0
 49
-6.35
 74
     0
 49
6.35
 74
     0
 49
-6.35
 74
     0
  0
LTYPE
  5
6C
330
5
100
AcDbSymbolTableRecord
100
AcDbLinetypeTableRecord
  2
CENTER2
 70
     0
  3
Center (.5x) ___ _ ___ _ ___ _ ___ _ ___ _ ___
 72
    65
 73
     4
 40
28.575
 49
19.05
 74
     0
 49
-3.175
 74
     0
 49
3.175
 74
     0
 49
-3.175
 74
     0
  0
LTYPE
  5
6D
330
5
100
AcDbSymbolTableRecord
100
AcDbLinetypeTableRecord
  2
PHANTOM
 70
     0
  3
Phantom ______  __  __  ______  __  __  ______
 72
    65
 73
     6
 40
63.5
 49
31.75
 74
     0
 49
-6.35
 74
     0
 49
6.35
 74
     0
 49
-6.35
 74
     0
 49
6.35
 74
     0
 49
-6.35
 74
     0
  0
LTYPE
  5
6E
330
5
100
AcDbSymbolTableRecord
100
AcDbLinetypeTableRecord
  2
PHANTOM2
 70
     0
  3
Phantom (.5x) ___ _ _ ___ _ _ ___ _ _ ___ _ _
 72
    65
 73
     6
 40
31.75
 49
15.875
 74
     0
 49
-3.175
 74
     0
 49
3.175
 74
     0
 49
-3.175
 74
     0
 49
3.175
 74
     0
 49
-3.175
 74
     0
  0
ENDTAB
  0
TABLE
  2
LAYER
  5
2
330
0
100
AcDbSymbolTable
 70
    17
  0
LAYER
  5
10
330
2
100
AcDbSymbolTableRecord
100
AcDbLayerTableRecord
  2
0
 70
     0
 62
   255
  6
Continuous
370
    50
390
F
  0
LAYER
  5
6F
330
2
100
AcDbSymbolTableRecord
100
AcDbLayerTableRecord
  2
object
 70
     0
 62
   255
  6
Continuous
370
    50
390
F
  0
LAYER
  5
70
330
2
100
AcDbSymbolTableRecord
100
AcDbLayerTableRecord
  2
center
 70
     0
 62
     1
  6
CENTER
370
    25
390
F
  0
LAYER
  5
71
330
2
100
AcDbSymbolTableRecord
100
AcDbLayerTableRecord
  2
hidden
 70
     0
 62
   255
  6
HIDDEN
370
    25
390
F
  0
LAYER
  5
72
330
2
100
AcDbSymbolTableRecord
100
AcDbLayerTableRecord
  2
phantom
 70
     0
 62
   255
  6
PHANTOM
370
    25
390
F
  0
LAYER
  5
73
330
2
100
AcDbSymbolTableRecord
100
AcDbLayerTableRecord
  2
dim
 70
     0
 62
   255
  6
Continuous
370
    25
390
F
  0
LAYER
  5
74
330
2
100
AcDbSymbolTableRecord
100
AcDbLayerTableRecord
  2
解答枠
 70
     0
 62
   255
  6
Continuous
370
    50
390
F
  0
LAYER
  5
75
330
2
100
AcDbSymbolTableRecord
100
AcDbLayerTableRecord
  2
太い実線
 70
     0
 62
   255
  6
Continuous
370
    50
390
F
  0
LAYER
  5
76
330
2
100
AcDbSymbolTableRecord
100
AcDbLayerTableRecord
  2
細い実線
 70
     0
 62
   255
  6
Continuous
370
    50
390
F
  0
LAYER
  5
77
330
2
100
AcDbSymbolTableRecord
100
AcDbLayerTableRecord
  2
細い破線
 70
     0
 62
   255
  6
HIDDEN
370
    50
390
F
  0
LAYER
  5
78
330
2
100
AcDbSymbolTableRecord
100
AcDbLayerTableRecord
  2
文字
 70
     0
 62
   255
  6
Continuous
370
    50
390
F
  0
LAYER
  5
79
330
2
100
AcDbSymbolTableRecord
100
AcDbLayerTableRecord
  2
細い一点鎖線
 70
     0
 62
   255
  6
CENTER
370
    50
390
F
  0
LAYER
  5
7A
330
2
100
AcDbSymbolTableRecord
100
AcDbLayerTableRecord
  2
MOJI
 70
     0
 62
   255
  6
Continuous
370
    50
390
F
  0
LAYER
  5
7B
330
2
100
AcDbSymbolTableRecord
100
AcDbLayerTableRecord
  2
WAKU
 70
     0
 62
   255
  6
Continuous
370
    50
390
F
  0
LAYER
  5
7C
330
2
100
AcDbSymbolTableRecord
100
AcDbLayerTableRecord
  2
SONOTA
 70
     0
 62
     1
  6
Continuous
370
    50
390
F
  0
LAYER
  5
7D
330
2
100
AcDbSymbolTableRecord
100
AcDbLayerTableRecord
  2
KIGOU
 70
     0
 62
   255
  6
Continuous
370
    50
390
F
  0
LAYER
  5
7E
330
2
100
AcDbSymbolTableRecord
100
AcDbLayerTableRecord
  2
Defpoints
 70
     0
 62
   255
  6
Continuous
290
     0
370
    50
390
F
  0
ENDTAB
  0
TABLE
  2
STYLE
  5
3
330
0
100
AcDbSymbolTable
 70
     2
  0
STYLE
  5
11
330
3
100
AcDbSymbolTableRecord
100
AcDbTextStyleTableRecord
  2
Standard
 70
     0
 40
0.0
 41
1.0
 50
0.0
 71
     0
 42
0.2
  3
txt
  4
bigfont
  0
STYLE
  5
2C
330
3
100
AcDbSymbolTableRecord
100
AcDbTextStyleTableRecord
  2
T_STANDARD
 70
     4
 40
10.0
 41
1.0
 50
0.0
 71
     0
 42
10.0
  3
txt
  4
bigfont
  0
ENDTAB
  0
TABLE
  2
VIEW
  5
6
330
0
100
AcDbSymbolTable
 70
     0
  0
ENDTAB
  0
TABLE
  2
UCS
  5
7
330
0
100
AcDbSymbolTable
 70
     0
  0
ENDTAB
  0
TABLE
  2
APPID
  5
9
330
0
100
AcDbSymbolTable
 70
     2
  0
APPID
  5
12
330
9
100
AcDbSymbolTableRecord
100
AcDbRegAppTableRecord
  2
ACAD
 70
     0
  0
APPID
  5
2B
330
9
100
AcDbSymbolTableRecord
100
AcDbRegAppTableRecord
  2
ODA
 70
     0
  0
ENDTAB
  0
TABLE
  2
DIMSTYLE
  5
A
330
0
100
AcDbSymbolTable
 70
     1
100
AcDbDimStyleTable
  0
DIMSTYLE
105
27
330
A
100
AcDbSymbolTableRecord
100
AcDbDimStyleTableRecord
  2
Standard
 70
     0
340
11
  0
ENDTAB
  0
TABLE
  2
BLOCK_RECORD
  5
1
330
0
100
AcDbSymbolTable
 70
    12
  0
BLOCK_RECORD
  5
1F
330
1
100
AcDbSymbolTableRecord
100
AcDbBlockTableRecord
  2
*Model_Space
340
22
  0
BLOCK_RECORD
  5
1B
330
1
100
AcDbSymbolTableRecord
100
AcDbBlockTableRecord
  2
*Paper_Space
340
1E
  0
BLOCK_RECORD
  5
23
330
1
100
AcDbSymbolTableRecord
100
AcDbBlockTableRecord
  2
*Paper_Space0
340
26
  0
BLOCK_RECORD
  5
2D
330
1
100
AcDbSymbolTableRecord
100
AcDbBlockTableRecord
  2
_ORIGIN
340
0
  0
BLOCK_RECORD
  5
32
330
1
100
AcDbSymbolTableRecord
100
AcDbBlockTableRecord
  2
_DOTBLANK
340
0
  0
BLOCK_RECORD
  5
37
330
1
100
AcDbSymbolTableRecord
100
AcDbBlockTableRecord
  2
_DOT
340
0
  0
BLOCK_RECORD
  5
3C
330
1
100
AcDbSymbolTableRecord
100
AcDbBlockTableRecord
  2
_OPEN
340
0
  0
BLOCK_RECORD
  5
42
330
1
100
AcDbSymbolTableRecord
100
AcDbBlockTableRecord
  2
_CLOSED
340
0
  0
BLOCK_RECORD
  5
49
330
1
100
AcDbSymbolTableRecord
100
AcDbBlockTableRecord
  2
_CLOSEDBLANK
340
0
  0
BLOCK_RECORD
  5
4F
330
1
100
AcDbSymbolTableRecord
100
AcDbBlockTableRecord
  2
_BOXBLANK
340
0
  0
BLOCK_RECORD
  5
57
330
1
100
AcDbSymbolTableRecord
100
AcDbBlockTableRecord
  2
_BOXFILLED
340
0
  0
BLOCK_RECORD
  5
5C
330
1
100
AcDbSymbolTableRecord
100
AcDbBlockTableRecord
  2
_INTEGRAL
340
0
  0
BLOCK_RECORD
  5
61
330
1
100
AcDbSymbolTableRecord
100
AcDbBlockTableRecord
  2
_OBLIQUE
340
0
  0
BLOCK_RECORD
  5
65
330
1
100
AcDbSymbolTableRecord
100
AcDbBlockTableRecord
  2
_NONE
340
0
  0
ENDTAB
  0
ENDSEC
  0
SECTION
  2
BLOCKS
  0
BLOCK
  5
20
330
1F
100
AcDbEntity
  8
0
100
AcDbBlockBegin
  2
*Model_Space
 70
     0
 71
     0
 10
0.0
 20
0.0
 30
0.0
  3
*Model_Space
  1

  0
ENDBLK
  5
21
330
1F
100
AcDbEntity
  8
0
100
AcDbBlockEnd
  0
BLOCK
  5
1C
330
1B
100
AcDbEntity
 67
     1
  8
0
100
AcDbBlockBegin
  2
*Paper_Space
 70
     0
 71
     0
 10
0.0
 20
0.0
 30
0.0
  3
*Paper_Space
  1

  0
ENDBLK
  5
1D
330
1B
100
AcDbEntity
 67
     1
  8
0
100
AcDbBlockEnd
  0
BLOCK
  5
24
330
23
100
AcDbEntity
  8
0
100
AcDbBlockBegin
  2
*Paper_Space0
 70
     0
 71
     0
 10
0.0
 20
0.0
 30
0.0
  3
*Paper_Space0
  1

  0
ENDBLK
  5
25
330
23
100
AcDbEntity
  8
0
100
AcDbBlockEnd
  0
BLOCK
  5
30
330
2D
100
AcDbEntity
  8
0
100
AcDbBlockBegin
  2
_ORIGIN
 70
     0
 71
     0
 10
0.0
 20
0.0
 30
0.0
  3
_ORIGIN
  1

  0
CIRCLE
  5
2E
330
2D
100
AcDbEntity
  8
0
100
AcDbCircle
 10
0.0
 20
0.0
 30
0.0
 40
0.5
  0
LINE
  5
2F
330
2D
100
AcDbEntity
  8
0
100
AcDbLine
 10
0.0
 20
0.0
 30
0.0
 11
-1.0
 21
0.0
 31
0.0
  0
ENDBLK
  5
31
330
2D
100
AcDbEntity
  8
0
100
AcDbBlockEnd
  0
BLOCK
  5
35
330
32
100
AcDbEntity
  8
0
100
AcDbBlockBegin
  2
_DOTBLANK
 70
     0
 71
     0
 10
0.0
 20
0.0
 30
0.0
  3
_DOTBLANK
  1

  0
CIRCLE
  5
33
330
32
100
AcDbEntity
  8
0
100
AcDbCircle
 10
0.0
 20
0.0
 30
0.0
 40
0.5
  0
LINE
  5
34
330
32
100
AcDbEntity
  8
0
100
AcDbLine
 10
-0.5
 20
0.0
 30
0.0
 11
-1.0
 21
0.0
 31
0.0
  0
ENDBLK
  5
36
330
32
100
AcDbEntity
  8
0
100
AcDbBlockEnd
  0
BLOCK
  5
3A
330
37
100
AcDbEntity
  8
0
100
AcDbBlockBegin
  2
_DOT
 70
     0
 71
     0
 10
0.0
 20
0.0
 30
0.0
  3
_DOT
  1

  0
LWPOLYLINE
  5
38
330
37
100
AcDbEntity
  8
0
100
AcDbPolyline
 90
        2
 70
     1
 43
0.5
 10
-0.25
 20
0.0
 42
1.0
 10
0.25
 20
0.0
 42
1.0
  0
LINE
  5
39
330
37
100
AcDbEntity
  8
0
100
AcDbLine
 10
-0.5
 20
0.0
 30
0.0
 11
-1.0
 21
0.0
 31
0.0
  0
ENDBLK
  5
3B
330
37
100
AcDbEntity
  8
0
100
AcDbBlockEnd
  0
BLOCK
  5
40
330
3C
100
AcDbEntity
  8
0
100
AcDbBlockBegin
  2
_OPEN
 70
     0
 71
     0
 10
0.0
 20
0.0
 30
0.0
  3
_OPEN
  1

  0
LINE
  5
3D
330
3C
100
AcDbEntity
  8
0
100
AcDbLine
 10
-1.0
 20
0.1666666666666667
 30
0.0
 11
0.0
 21
0.0
 31
0.0
  0
LINE
  5
3E
330
3C
100
AcDbEntity
  8
0
100
AcDbLine
 10
-1.0
 20
-0.1666666666666667
 30
0.0
 11
0.0
 21
0.0
 31
0.0
  0
LINE
  5
3F
330
3C
100
AcDbEntity
  8
0
100
AcDbLine
 10
0.0
 20
0.0
 30
0.0
 11
-1.0
 21
0.0
 31
0.0
  0
ENDBLK
  5
41
330
3C
100
AcDbEntity
  8
0
100
AcDbBlockEnd
  0
BLOCK
  5
47
330
42
100
AcDbEntity
  8
0
100
AcDbBlockBegin
  2
_CLOSED
 70
     0
 71
     0
 10
0.0
 20
0.0
 30
0.0
  3
_CLOSED
  1

  0
LINE
  5
43
330
42
100
AcDbEntity
  8
0
100
AcDbLine
 10
-1.0
 20
0.1666666666666667
 30
0.0
 11
0.0
 21
0.0
 31
0.0
  0
LINE
  5
44
330
42
100
AcDbEntity
  8
0
100
AcDbLine
 10
0.0
 20
0.0
 30
0.0
 11
-1.0
 21
-0.1666666666666667
 31
0.0
  0
LINE
  5
45
330
42
100
AcDbEntity
  8
0
100
AcDbLine
 10
-1.0
 20
0.1666666666666667
 30
0.0
 11
-1.0
 21
-0.1666666666666667
 31
0.0
  0
LINE
  5
46
330
42
100
AcDbEntity
  8
0
100
AcDbLine
 10
0.0
 20
0.0
 30
0.0
 11
-1.0
 21
0.0
 31
0.0
  0
ENDBLK
  5
48
330
42
100
AcDbEntity
  8
0
100
AcDbBlockEnd
  0
BLOCK
  5
4D
330
49
100
AcDbEntity
  8
0
100
AcDbBlockBegin
  2
_CLOSEDBLANK
 70
     0
 71
     0
 10
0.0
 20
0.0
 30
0.0
  3
_CLOSEDBLANK
  1

  0
LINE
  5
4A
330
49
100
AcDbEntity
  8
0
100
AcDbLine
 10
-1.0
 20
0.1666666666666667
 30
0.0
 11
0.0
 21
0.0
 31
0.0
  0
LINE
  5
4B
330
49
100
AcDbEntity
  8
0
100
AcDbLine
 10
0.0
 20
0.0
 30
0.0
 11
-1.0
 21
-0.1666666666666667
 31
0.0
  0
LINE
  5
4C
330
49
100
AcDbEntity
  8
0
100
AcDbLine
 10
-1.0
 20
0.1666666666666667
 30
0.0
 11
-1.0
 21
-0.1666666666666667
 31
0.0
  0
ENDBLK
  5
4E
330
49
100
AcDbEntity
  8
0
100
AcDbBlockEnd
  0
BLOCK
  5
55
330
4F
100
AcDbEntity
  8
0
100
AcDbBlockBegin
  2
_BOXBLANK
 70
     0
 71
     0
 10
0.0
 20
0.0
 30
0.0
  3
_BOXBLANK
  1

  0
LINE
  5
50
330
4F
100
AcDbEntity
  8
0
100
AcDbLine
 10
-0.5
 20
-0.5
 30
0.0
 11
0.5
 21
-0.5
 31
0.0
  0
LINE
  5
51
330
4F
100
AcDbEntity
  8
0
100
AcDbLine
 10
0.5
 20
-0.5
 30
0.0
 11
0.5
 21
0.5
 31
0.0
  0
LINE
  5
52
330
4F
100
AcDbEntity
  8
0
100
AcDbLine
 10
0.5
 20
0.5
 30
0.0
 11
-0.5
 21
0.5
 31
0.0
  0
LINE
  5
53
330
4F
100
AcDbEntity
  8
0
100
AcDbLine
 10
-0.5
 20
0.5
 30
0.0
 11
-0.5
 21
-0.5
 31
0.0
  0
LINE
  5
54
330
4F
100
AcDbEntity
  8
0
100
AcDbLine
 10
-0.5
 20
0.0
 30
0.0
 11
-1.0
 21
0.0
 31
0.0
  0
ENDBLK
  5
56
330
4F
100
AcDbEntity
  8
0
100
AcDbBlockEnd
  0
BLOCK
  5
5A
330
57
100
AcDbEntity
  8
0
100
AcDbBlockBegin
  2
_BOXFILLED
 70
     0
 71
     0
 10
0.0
 20
0.0
 30
0.0
  3
_BOXFILLED
  1

  0
SOLID
  5
58
330
57
100
AcDbEntity
  8
0
100
AcDbTrace
 10
-0.5
 20
0.5
 30
0.0
 11
0.5
 21
0.5
 31
0.0
 12
-0.5
 22
-0.5
 32
0.0
 13
0.5
 23
-0.5
 33
0.0
  0
LINE
  5
59
330
57
100
AcDbEntity
  8
0
100
AcDbLine
 10
-0.5
 20
0.0
 30
0.0
 11
-1.0
 21
0.0
 31
0.0
  0
ENDBLK
  5
5B
330
57
100
AcDbEntity
  8
0
100
AcDbBlockEnd
  0
BLOCK
  5
5F
330
5C
100
AcDbEntity
  8
0
100
AcDbBlockBegin
  2
_INTEGRAL
 70
     0
 71
     0
 10
0.0
 20
0.0
 30
0.0
  3
_INTEGRAL
  1

  0
ARC
  5
5D
330
5C
100
AcDbEntity
  8
0
100
AcDbCircle
 10
0.444888
 20
-0.0913346
 30
0.0
 40
0.4541666
100
AcDbArc
 50
5844.169510334397
 51
9625.690958197831
  0
ARC
  5
5E
330
5C
100
AcDbEntity
  8
0
100
AcDbCircle
 10
-0.444888
 20
0.0913346
 30
0.0
 40
0.4541666
100
AcDbArc
 50
16157.40982268922
 51
19938.93127055265
  0
ENDBLK
  5
60
330
5C
100
AcDbEntity
  8
0
100
AcDbBlockEnd
  0
BLOCK
  5
63
330
61
100
AcDbEntity
  8
0
100
AcDbBlockBegin
  2
_OBLIQUE
 70
     0
 71
     0
 10
0.0
 20
0.0
 30
0.0
  3
_OBLIQUE
  1

  0
LINE
  5
62
330
61
100
AcDbEntity
  8
0
100
AcDbLine
 10
-0.5
 20
-0.5
 30
0.0
 11
0.5
 21
0.5
 31
0.0
  0
ENDBLK
  5
64
330
61
100
AcDbEntity
  8
0
100
AcDbBlockEnd
  0
BLOCK
  5
66
330
65
100
AcDbEntity
  8
0
100
AcDbBlockBegin
  2
_NONE
 70
     0
 71
     0
 10
0.0
 20
0.0
 30
0.0
  3
_NONE
  1

  0
ENDBLK
  5
67
330
65
100
AcDbEntity
  8
0
100
AcDbBlockEnd
  0
ENDSEC
  0
SECTION
  2
ENTITIES
  0
LINE
  5
7F
330
1F
100
AcDbEntity
  8
WAKU
  6
Continuous
 62
   255
370
    50
100
AcDbLine
 10
1.812633497400384
 20
1.281660048654885
 30
0.0
 11
27702.8126334974
 21
1.281660048654885
 31
0.0
  0
LINE
  5
80
330
1F
100
AcDbEntity
  8
WAKU
  6
Continuous
 62
   255
370
    50
100
AcDbLine
 10
20702.8126334974
 20
601.2816600486549
 30
0.0
 11
27702.8126334974
 21
601.2816600486549
 31
0.0
  0
LINE
  5
81
330
1F
100
AcDbEntity
  8
WAKU
  6
Continuous
 62
   255
370
    50
100
AcDbLine
 10
27702.8126334974
 20
1.281660048654885
 30
0.0
 11
27702.8126334974
 21
19002.28166004866
 31
0.0
  0
LINE
  5
82
330
1F
100
AcDbEntity
  8
WAKU
  6
Continuous
 62
   255
370
    50
100
AcDbLine
 10
20702.8126334974
 20
1201.281660048655
 30
0.0
 11
20702.8126334974
 21
6701.281660048655
 31
0.0
  0
LINE
  5
83
330
1F
100
AcDbEntity
  8
WAKU
  6
Continuous
 62
   255
370
    50
100
AcDbLine
 10
27702.8126334974
 20
19002.28166004866
 30
0.0
 11
1.812633497400384
 21
19002.28166004866
 31
0.0
  0
LINE
  5
84
330
1F
100
AcDbEntity
  8
WAKU
  6
Continuous
 62
   255
370
    50
100
AcDbLine
 10
1.812633497400384
 20
19002.28166004866
 30
0.0
 11
1.812633497400384
 21
1.281660048654885
 31
0.0
  0
LINE
  5
85
330
1F
100
AcDbEntity
  8
WAKU
  6
Continuous
 62
   255
370
    50
100
AcDbLine
 10
20702.8126334974
 20
1.281660048654885
 30
0.0
 11
20702.8126334974
 21
1201.281660048655
 31
0.0
  0
LINE
  5
86
330
1F
100
AcDbEntity
  8
WAKU
  6
Continuous
 62
   255
370
    50
100
AcDbLine
 10
22802.8126334974
 20
1.281660048654885
 30
0.0
 11
22802.8126334974
 21
1201.281660048655
 31
0.0
  0
TEXT
  5
87
330
1F
100
AcDbEntity
  8
WAKU
  6
Continuous
 62
   255
370
    25
100
AcDbText
 10
21102.8126334974
 20
151.2816600486549
 30
0.0
 40
300.0
  1
NAME
 41
0.5
100
AcDbText
  0
LINE
  5
88
330
1F
100
AcDbEntity
  8
WAKU
  6
Continuous
 62
   255
370
    50
100
AcDbLine
 10
21202.8126334974
 20
3951.281660048655
 30
0.0
 11
22952.8126334974
 21
3951.281660048655
 31
0.0
  0
TEXT
  5
89
330
1F
100
AcDbEntity
  8
MOJI
  6
Continuous
 62
   255
370
    25
100
AcDbText
 10
23202.8126334974
 20
3301.281660048655
 30
0.0
 40
280.0
  1
moji
 41
0.5
100
AcDbText
  0
LINE
  5
8A
330
1F
100
AcDbEntity
  8
WAKU
  6
Continuous
 62
   255
370
    50
100
AcDbLine
 10
20702.8126334974
 20
6701.281660048655
 30
0.0
 11
27702.8126334974
 21
6701.281660048655
 31
0.0
  0
TEXT
  5
8B
330
1F
100
AcDbEntity
  8
WAKU
  6
Continuous
 62
   255
370
    25
100
AcDbText
 10
23202.8126334974
 20
3801.281660048655
 30
0.0
 40
280.0
  1
waku
 41
0.5
100
AcDbText
  0
LINE
  5
8C
330
1F
100
AcDbEntity
  8
WAKU
  6
Continuous
 62
   255
370
    50
100
AcDbLine
 10
21702.8126334974
 20
2242.225635987555
 30
0.0
 11
26702.8126334974
 21
2242.225635987555
 31
0.0
  0
LINE
  5
8D
330
1F
100
AcDbEntity
  8
WAKU
  6
Continuous
 62
   255
370
    50
100
AcDbLine
 10
21702.8126334974
 20
1942.225635987555
 30
0.0
 11
26702.8126334974
 21
1942.225635987555
 31
0.0
  0
LINE
  5
8E
330
1F
100
AcDbEntity
  8
WAKU
  6
Continuous
 62
   255
370
    50
100
AcDbLine
 10
21702.8126334974
 20
2242.225635987555
 30
0.0
 11
21702.8126334974
 21
1942.225635987555
 31
0.0
  0
LINE
  5
8F
330
1F
100
AcDbEntity
  8
WAKU
  6
Continuous
 62
   255
370
    50
100
AcDbLine
 10
22702.8126334974
 20
2242.225635987555
 30
0.0
 11
22702.8126334974
 21
1942.225635987555
 31
0.0
  0
LINE
  5
90
330
1F
100
AcDbEntity
  8
WAKU
  6
Continuous
 62
   255
370
    50
100
AcDbLine
 10
23702.8126334974
 20
2242.225635987555
 30
0.0
 11
23702.8126334974
 21
1942.225635987555
 31
0.0
  0
LINE
  5
91
330
1F
100
AcDbEntity
  8
WAKU
  6
Continuous
 62
   255
370
    50
100
AcDbLine
 10
24702.8126334974
 20
2242.225635987555
 30
0.0
 11
24702.8126334974
 21
1942.225635987555
 31
0.0
  0
LINE
  5
92
330
1F
100
AcDbEntity
  8
WAKU
  6
Continuous
 62
   255
370
    50
100
AcDbLine
 10
25702.8126334974
 20
2242.225635987555
 30
0.0
 11
25702.8126334974
 21
1942.225635987555
 31
0.0
  0
LINE
  5
93
330
1F
100
AcDbEntity
  8
WAKU
  6
Continuous
 62
   255
370
    50
100
AcDbLine
 10
26702.8126334974
 20
2242.225635987555
 30
0.0
 11
26702.8126334974
 21
1942.225635987555
 31
0.0
  0
TEXT
  5
94
330
1F
100
AcDbEntity
  8
WAKU
  6
Continuous
 62
   255
370
    25
100
AcDbText
 10
21637.1958355974
 20
2367.684953648655
 30
0.0
 40
200.0
  1
0
 41
0.5
100
AcDbText
  0
TEXT
  5
95
330
1F
100
AcDbEntity
  8
WAKU
  6
Continuous
 62
   255
370
    25
100
AcDbText
 10
26102.8126334974
 20
2367.684953648655
 30
0.0
 40
200.0
  1
5000mm
 41
0.5
100
AcDbText
  0
LINE
  5
96
330
1F
100
AcDbEntity
  8
WAKU
  6
Continuous
 62
   255
370
    50
100
AcDbLine
 10
20702.8126334974
 20
1201.281660048655
 30
0.0
 11
27702.8126334974
 21
1201.281660048655
 31
0.0
  0
TEXT
  5
97
330
1F
100
AcDbEntity
  8
WAKU
  6
Continuous
 62
   255
370
    25
100
AcDbText
 10
201.8126334974004
 20
18402.28166004866
 30
0.0
 40
400.0
  1
問２
100
AcDbText
  0
TEXT
  5
98
330
1F
100
AcDbEntity
  8
MOJI
  6
Continuous
 62
   255
370
    25
100
AcDbText
 10
21302.8126334974
 20
3301.281660048655
 30
0.0
 40
280.0
  1
ABCDEF
 41
0.5
100
AcDbText
  0
TEXT
  5
99
330
1F
100
AcDbEntity
  8
WAKU
  6
Continuous
 62
   255
370
    25
100
AcDbText
 10
21102.8126334974
 20
751.2816600486549
 30
0.0
 40
300.0
  1
TYPE
 41
0.5
100
AcDbText
  0
TEXT
  5
9A
330
1F
100
AcDbEntity
  8
MOJI
  6
Continuous
 62
   255
370
    25
100
AcDbText
 10
25202.8126334974
 20
751.2816600486549
 30
0.0
 40
300.0
  1
1
 41
0.5
100
AcDbText
  0
TEXT
  5
9B
330
1F
100
AcDbEntity
  8
WAKU
  6
Continuous
 62
   255
370
    25
100
AcDbText
 10
17202.8126334974
 20
19252.28166004866
 30
0.0
 40
400.0
  1
平成１９年度１級（前期） トレース ＴＹＰＥ１
100
AcDbText
  0
LINE
  5
9C
330
1F
100
AcDbEntity
  8
SONOTA
  6
Continuous
 62
   255
370
    50
100
AcDbLine
 10
21202.8126334974
 20
4451.281660048655
 30
0.0
 11
22952.8126334974
 21
4451.281660048655
 31
0.0
  0
TEXT
  5
9D
330
1F
100
AcDbEntity
  8
SONOTA
  6
Continuous
 62
   255
370
    25
100
AcDbText
 10
23202.8126334974
 20
4301.281660048655
 30
0.0
 40
280.0
  1
sonota
 41
0.5
100
AcDbText
  0
LINE
  5
9E
330
1F
100
AcDbEntity
  8
SONOTA
  6
Continuous
 62
   255
370
    50
100
AcDbLine
 10
10006.3983459064
 20
14102.96451768565
 30
0.0
 11
14603.8983459074
 21
14102.96451768565
 31
0.0
  0
LINE
  5
9F
330
1F
100
AcDbEntity
  8
SONOTA
  6
Continuous
 62
   255
370
    50
100
AcDbLine
 10
10131.4023459074
 20
13902.96451768565
 30
0.0
 11
14603.8983459074
 21
13902.96451768565
 31
0.0
  0
LINE
  5
A0
330
1F
100
AcDbEntity
  8
SONOTA
  6
Continuous
 62
   255
370
    50
100
AcDbLine
 10
14603.8983459074
 20
9596.905502751055
 30
0.0
 11
13697.6493459074
 21
9596.905502751055
 31
0.0
  0
LINE
  5
A1
330
1F
100
AcDbEntity
  8
SONOTA
  6
Continuous
 62
   255
370
    50
100
AcDbLine
 10
13783.8983459074
 20
6104.405502750955
 30
0.0
 11
14803.8983459074
 21
6104.405502750955
 31
0.0
  0
LINE
  5
A2
330
1F
100
AcDbEntity
  8
SONOTA
  6
Continuous
 62
   255
370
    50
100
AcDbLine
 10
13783.8983459074
 20
6069.405502750955
 30
0.0
 11
14803.8983459074
 21
6069.405502750955
 31
0.0
  0
LINE
  5
A3
330
1F
100
AcDbEntity
  8
SONOTA
  6
Continuous
 62
   255
370
    50
100
AcDbLine
 10
13783.8983459074
 20
6139.405502750955
 30
0.0
 11
14803.8983459074
 21
6139.405502750955
 31
0.0
  0
ARC
  5
A4
330
1F
100
AcDbEntity
  8
SONOTA
  6
Continuous
 62
   255
370
    50
100
AcDbCircle
 10
10131.4023459074
 20
9687.461017685855
 30
0.0
 40
750.0
100
AcDbArc
 50
0.0
 51
89.99999999999992
  0
LINE
  5
A5
330
1F
100
AcDbEntity
  8
KIGOU
  6
Continuous
 62
   255
370
    50
100
AcDbLine
 10
9920.943574683603
 20
9708.834555275755
 30
0.0
 11
9920.943574683603
 21
9918.947023118055
 31
0.0
  0
LINE
  5
A6
330
1F
100
AcDbEntity
  8
KIGOU
  6
Continuous
 62
   255
370
    50
100
AcDbLine
 10
9800.943574683603
 20
9708.834555275755
 30
0.0
 11
9800.943574683603
 21
9918.947023118055
 31
0.0
  0
ARC
  5
A7
330
1F
100
AcDbEntity
  8
KIGOU
  6
Continuous
 62
   255
370
    50
100
AcDbCircle
 10
9860.943574683603
 20
9786.923483992254
 30
0.0
 40
145.0179812412807
100
AcDbArc
 50
327.4199402102494
 51
212.5800597897544
  0
LINE
  5
A8
330
1F
100
AcDbEntity
  8
SONOTA
  6
Continuous
 62
   255
370
    50
100
AcDbLine
 10
6643.898345907
 20
9541.917502750956
 30
0.0
 11
6643.898345907
 21
10966.91550275066
 31
0.0
  0
LINE
  5
A9
330
1F
100
AcDbEntity
  8
SONOTA
  6
Continuous
 62
   255
370
    50
100
AcDbLine
 10
6743.898345907
 20
9541.917502750956
 30
0.0
 11
6743.898345907
 21
10966.91550275066
 31
0.0
  0
ARC
  5
AA
330
1F
100
AcDbEntity
  8
SONOTA
  6
Continuous
 62
   255
370
    50
100
AcDbCircle
 10
5553.898345907
 20
9759.412502750854
 30
0.0
 40
820.0
100
AcDbArc
 50
89.99999999999992
 51
179.9999999999998
  0
LINE
  5
AB
330
1F
100
AcDbEntity
  8
SONOTA
  6
Continuous
 62
   255
370
    50
100
AcDbLine
 10
4583.898345907
 20
9699.412502751055
 30
0.0
 11
5553.898345907
 21
9699.412502751055
 31
0.0
  0
LINE
  5
AC
330
1F
100
AcDbEntity
  8
SONOTA
  6
Continuous
 62
   255
370
    50
100
AcDbLine
 10
5553.898345907
 20
9759.412502750854
 30
0.0
 11
4733.898345907001
 21
9759.412502750854
 31
0.0
  0
LINE
  5
AD
330
1F
100
AcDbEntity
  8
SONOTA
  6
Continuous
 62
   255
370
    50
100
AcDbLine
 10
7331.300345907
 20
9466.905502750955
 30
0.0
 11
4783.898345907001
 21
9466.905502750955
 31
0.0
  0
LINE
  5
AE
330
1F
100
AcDbEntity
  8
SONOTA
  6
Continuous
 62
   255
370
    50
100
AcDbLine
 10
3983.898345907001
 20
6004.405502750955
 30
0.0
 11
13783.8983459074
 21
6004.405502750955
 31
0.0
  0
LINE
  5
AF
330
1F
100
AcDbEntity
  8
SONOTA
  6
Continuous
 62
   255
370
    50
100
AcDbLine
 10
4783.898345907001
 20
6204.405502750955
 30
0.0
 11
8191.4003459069
 21
6204.405502750955
 31
0.0
  0
LINE
  5
B0
330
1F
100
AcDbEntity
  8
SONOTA
  6
Continuous
 62
   255
370
    50
100
AcDbLine
 10
4583.898345907
 20
7039.405002750955
 30
0.0
 11
4583.898345907
 21
6204.405502750955
 31
0.0
  0
LINE
  5
B1
330
1F
100
AcDbEntity
  8
SONOTA
  6
Continuous
 62
   255
370
    50
100
AcDbLine
 10
3983.898345907001
 20
7039.405002750955
 30
0.0
 11
3983.898345907001
 21
6204.405502750955
 31
0.0
  0
LINE
  5
B2
330
1F
100
AcDbEntity
  8
SONOTA
  6
Continuous
 62
   255
370
    50
100
AcDbLine
 10
4023.898345907001
 20
7039.405002750955
 30
0.0
 11
4023.898345907001
 21
6204.405502750955
 31
0.0
  0
LINE
  5
B3
330
1F
100
AcDbEntity
  8
SONOTA
  6
Continuous
 62
   255
370
    50
100
AcDbLine
 10
4783.898345907001
 20
6204.405502750955
 30
0.0
 11
4783.898345907001
 21
7866.770517685954
 31
0.0
  0
ARC
  5
B4
330
1F
100
AcDbEntity
  8
SONOTA
  6
Continuous
 62
   255
370
    50
100
AcDbCircle
 10
3983.898345907001
 20
6204.405502750955
 30
0.0
 40
834.9994999999699
100
AcDbArc
 50
89.99999999999992
 51
179.9999999999998
  0
LINE
  5
B5
330
1F
100
AcDbEntity
  8
SONOTA
  6
Continuous
 62
   255
370
    50
100
AcDbLine
 10
3983.898345907001
 20
6204.405502750955
 30
0.0
 11
4583.898345907
 21
6204.405502750955
 31
0.0
  0
LINE
  5
B6
330
1F
100
AcDbEntity
  8
SONOTA
  6
Continuous
 62
   255
370
    50
100
AcDbLine
 10
3983.898345907001
 20
6204.405502750955
 30
0.0
 11
3148.898845907001
 21
6204.405502750955
 31
0.0
  0
LINE
  5
B7
330
1F
100
AcDbEntity
  8
SONOTA
  6
Continuous
 62
   255
370
    50
100
AcDbLine
 10
3983.898345907001
 20
6004.405502750955
 30
0.0
 11
3983.898345907001
 21
6204.405502750955
 31
0.0
  0
LINE
  5
B8
330
1F
100
AcDbEntity
  8
SONOTA
  6
Continuous
 62
   255
370
    50
100
AcDbLine
 10
4648.898345907001
 20
7866.770517685954
 30
0.0
 11
4648.898345907001
 21
9396.770517685955
 31
0.0
  0
LINE
  5
B9
330
1F
100
AcDbEntity
  8
SONOTA
  6
Continuous
 62
   255
370
    50
100
AcDbLine
 10
4676.398345907001
 20
7866.770517685954
 30
0.0
 11
4676.398345907001
 21
8656.770517685953
 31
0.0
  0
LINE
  5
BA
330
1F
100
AcDbEntity
  8
SONOTA
  6
Continuous
 62
   255
370
    50
100
AcDbLine
 10
4718.898345907001
 20
7866.770517685954
 30
0.0
 11
4718.898345907001
 21
9396.770517685955
 31
0.0
  0
LINE
  5
BB
330
1F
100
AcDbEntity
  8
SONOTA
  6
Continuous
 62
   255
370
    50
100
AcDbLine
 10
4583.898345907
 20
7209.405002751055
 30
0.0
 11
3983.898345907001
 21
7209.405002751055
 31
0.0
  0
LINE
  5
BC
330
1F
100
AcDbEntity
  8
SONOTA
  6
Continuous
 62
   255
370
    50
100
AcDbLine
 10
4583.898345907
 20
7039.405002750955
 30
0.0
 11
3983.898345907001
 21
7039.405002750955
 31
0.0
  0
LINE
  5
BD
330
1F
100
AcDbEntity
  8
SONOTA
  6
Continuous
 62
   255
370
    50
100
AcDbLine
 10
3983.898345907001
 20
7209.405002751055
 30
0.0
 11
3983.898345907001
 21
7039.405002750955
 31
0.0
  0
LINE
  5
BE
330
1F
100
AcDbEntity
  8
SONOTA
  6
Continuous
 62
   255
370
    50
100
AcDbLine
 10
4583.898345907
 20
7212.464517685955
 30
0.0
 11
4583.898345907
 21
7866.770517685954
 31
0.0
  0
LINE
  5
BF
330
1F
100
AcDbEntity
  8
SONOTA
  6
Continuous
 62
   255
370
    50
100
AcDbLine
 10
4583.898345907
 20
7866.770517685954
 30
0.0
 11
4783.898345907001
 21
7866.770517685954
 31
0.0
  0
ARC
  5
C0
330
1F
100
AcDbEntity
  8
KIGOU
  6
Continuous
 62
   255
370
    50
100
AcDbCircle
 10
4928.916327148098
 20
7671.752536444654
 30
0.0
 40
145.0179812412798
100
AcDbArc
 50
237.4199402095925
 51
122.58005979041
  0
LINE
  5
C1
330
1F
100
AcDbEntity
  8
KIGOU
  6
Continuous
 62
   255
370
    50
100
AcDbLine
 10
4850.827398431698
 20
7731.752536444654
 30
0.0
 11
5060.9398662739
 21
7731.752536444654
 31
0.0
  0
LINE
  5
C2
330
1F
100
AcDbEntity
  8
KIGOU
  6
Continuous
 62
   255
370
    50
100
AcDbLine
 10
4850.827398431698
 20
7611.752536444655
 30
0.0
 11
5060.9398662739
 21
7611.752536444655
 31
0.0
  0
LINE
  5
C3
330
1F
100
AcDbEntity
  8
KIGOU
  6
Continuous
 62
   255
370
    50
100
AcDbLine
 10
4838.328393546896
 20
7784.995819552953
 30
0.0
 11
4815.673044039798
 21
7762.340470045854
 31
0.0
  0
LINE
  5
C4
330
1F
100
AcDbEntity
  8
KIGOU
  6
Continuous
 62
   255
370
    50
100
AcDbLine
 10
4850.827398431597
 20
7793.004696377155
 30
0.0
 11
4805.144122389098
 21
7747.321420334653
 31
0.0
  0
LINE
  5
C5
330
1F
100
AcDbEntity
  8
KIGOU
  6
Continuous
 62
   255
370
    50
100
AcDbLine
 10
4850.827398431597
 20
7788.514568316653
 30
0.0
 11
4799.500485319798
 21
7737.187655204755
 31
0.0
  0
LINE
  5
C6
330
1F
100
AcDbEntity
  8
KIGOU
  6
Continuous
 62
   255
370
    50
100
AcDbLine
 10
4850.827398431597
 20
7784.024440256154
 30
0.0
 11
4795.581018649197
 21
7728.778060473654
 31
0.0
  0
LINE
  5
C7
330
1F
100
AcDbEntity
  8
KIGOU
  6
Continuous
 62
   255
370
    50
100
AcDbLine
 10
4850.827398431597
 20
7779.534312195553
 30
0.0
 11
4792.643603664597
 21
7721.350517428554
 31
0.0
  0
LINE
  5
C8
330
1F
100
AcDbEntity
  8
KIGOU
  6
Continuous
 62
   255
370
    50
100
AcDbLine
 10
4850.827398431597
 20
7775.044184135053
 30
0.0
 11
4790.368133983998
 21
7714.584919687454
 31
0.0
  0
LINE
  5
C9
330
1F
100
AcDbEntity
  8
KIGOU
  6
Continuous
 62
   255
370
    50
100
AcDbLine
 10
4850.827398431597
 20
7770.554056074554
 30
0.0
 11
4788.581318213396
 21
7708.307975856254
 31
0.0
  0
LINE
  5
CA
330
1F
100
AcDbEntity
  8
KIGOU
  6
Continuous
 62
   255
370
    50
100
AcDbLine
 10
4850.827398431597
 20
7766.063928013953
 30
0.0
 11
4787.176633040798
 21
7702.413162623155
 31
0.0
  0
LINE
  5
CB
330
1F
100
AcDbEntity
  8
KIGOU
  6
Continuous
 62
   255
370
    50
100
AcDbLine
 10
4850.827398431597
 20
7761.573799953455
 30
0.0
 11
4786.082972922997
 21
7696.829374444755
 31
0.0
  0
LINE
  5
CC
330
1F
100
AcDbEntity
  8
KIGOU
  6
Continuous
 62
   255
370
    50
100
AcDbLine
 10
4850.827398431597
 20
7757.083671892953
 30
0.0
 11
4785.250035505097
 21
7691.506308966353
 31
0.0
  0
LINE
  5
CD
330
1F
100
AcDbEntity
  8
KIGOU
  6
Continuous
 62
   255
370
    50
100
AcDbLine
 10
4850.827398431597
 20
7752.593543832354
 30
0.0
 11
4784.6406632648
 21
7686.406808665553
 31
0.0
  0
LINE
  5
CE
330
1F
100
AcDbEntity
  8
KIGOU
  6
Continuous
 62
   255
370
    50
100
AcDbLine
 10
4850.827398431597
 20
7748.103415771853
 30
0.0
 11
4784.226475264299
 21
7681.502492604453
 31
0.0
  0
LINE
  5
CF
330
1F
100
AcDbEntity
  8
KIGOU
  6
Continuous
 62
   255
370
    50
100
AcDbLine
 10
4850.827398431597
 20
7743.613287711254
 30
0.0
 11
4783.985209311897
 21
7676.771098591552
 31
0.0
  0
LINE
  5
D0
330
1F
100
AcDbEntity
  8
KIGOU
  6
Continuous
 62
   255
370
    50
100
AcDbLine
 10
4850.827398431597
 20
7739.123159650753
 30
0.0
 11
4783.899020240798
 21
7672.194781459954
 31
0.0
  0
LINE
  5
D1
330
1F
100
AcDbEntity
  8
KIGOU
  6
Continuous
 62
   255
370
    50
100
AcDbLine
 10
4850.827398431597
 20
7734.633031590253
 30
0.0
 11
4783.953344388297
 21
7667.758977546852
 31
0.0
  0
LINE
  5
D2
330
1F
100
AcDbEntity
  8
KIGOU
  6
Continuous
 62
   255
370
    50
100
AcDbLine
 10
4850.827398431597
 20
7730.142903529655
 30
0.0
 11
4784.136115517898
 21
7663.451620615954
 31
0.0
  0
LINE
  5
D3
330
1F
100
AcDbEntity
  8
KIGOU
  6
Continuous
 62
   255
370
    50
100
AcDbLine
 10
4850.827398431597
 20
7725.652775469154
 30
0.0
 11
4784.437207594398
 21
7659.262584631952
 31
0.0
  0
LINE
  5
D4
330
1F
100
AcDbEntity
  8
KIGOU
  6
Continuous
 62
   255
370
    50
100
AcDbLine
 10
4850.827398431597
 20
7721.162647408654
 30
0.0
 11
4784.848028919599
 21
7655.183277896555
 31
0.0
  0
LINE
  5
D5
330
1F
100
AcDbEntity
  8
KIGOU
  6
Continuous
 62
   255
370
    50
100
AcDbLine
 10
4850.827398431597
 20
7716.672519348053
 30
0.0
 11
4785.361220169699
 21
7651.206341086154
 31
0.0
  0
LINE
  5
D6
330
1F
100
AcDbEntity
  8
KIGOU
  6
Continuous
 62
   255
370
    50
100
AcDbLine
 10
4850.827398431597
 20
7712.182391287553
 30
0.0
 11
4785.970425538298
 21
7647.325418394255
 31
0.0
  0
LINE
  5
D7
330
1F
100
AcDbEntity
  8
KIGOU
  6
Continuous
 62
   255
370
    50
100
AcDbLine
 10
4850.827398431597
 20
7707.692263227053
 30
0.0
 11
4786.670116438598
 21
7643.534981233953
 31
0.0
  0
LINE
  5
D8
330
1F
100
AcDbEntity
  8
KIGOU
  6
Continuous
 62
   255
370
    50
100
AcDbLine
 10
4850.827398431597
 20
7703.202135166453
 30
0.0
 11
4787.455453723595
 21
7639.830190458454
 31
0.0
  0
LINE
  5
D9
330
1F
100
AcDbEntity
  8
KIGOU
  6
Continuous
 62
   255
370
    50
100
AcDbLine
 10
4850.827398431597
 20
7698.712007105953
 30
0.0
 11
4788.322178619198
 21
7636.206787293455
 31
0.0
  0
LINE
  5
DA
330
1F
100
AcDbEntity
  8
KIGOU
  6
Continuous
 62
   255
370
    50
100
AcDbLine
 10
4850.827398431597
 20
7694.221879045454
 30
0.0
 11
4789.266525389997
 21
7632.661006003753
 31
0.0
  0
LINE
  5
DB
330
1F
100
AcDbEntity
  8
KIGOU
  6
Continuous
 62
   255
370
    50
100
AcDbLine
 10
4850.827398431597
 20
7689.731750984854
 30
0.0
 11
4790.285150684998
 21
7629.189503238154
 31
0.0
  0
LINE
  5
DC
330
1F
100
AcDbEntity
  8
KIGOU
  6
Continuous
 62
   255
370
    50
100
AcDbLine
 10
4850.827398431597
 20
7685.241622924354
 30
0.0
 11
4791.375075845398
 21
7625.789300338152
 31
0.0
  0
LINE
  5
DD
330
1F
100
AcDbEntity
  8
KIGOU
  6
Continuous
 62
   255
370
    50
100
AcDbLine
 10
4850.827398431597
 20
7680.751494863853
 30
0.0
 11
4792.533639404098
 21
7622.457735836254
 31
0.0
  0
LINE
  5
DE
330
1F
100
AcDbEntity
  8
KIGOU
  6
Continuous
 62
   255
370
    50
100
AcDbLine
 10
4850.827398431597
 20
7676.261366803254
 30
0.0
 11
4793.758457680998
 21
7619.192426052653
 31
0.0
  0
LINE
  5
DF
330
1F
100
AcDbEntity
  8
KIGOU
  6
Continuous
 62
   255
370
    50
100
AcDbLine
 10
4850.827398431597
 20
7671.771238742753
 30
0.0
 11
4795.047391876296
 21
7615.991232187354
 31
0.0
  0
LINE
  5
E0
330
1F
100
AcDbEntity
  8
KIGOU
  6
Continuous
 62
   255
370
    50
100
AcDbLine
 10
4850.827398431597
 20
7667.281110682255
 30
0.0
 11
4796.398520423697
 21
7612.852232674253
 31
0.0
  0
LINE
  5
E1
330
1F
100
AcDbEntity
  8
KIGOU
  6
Continuous
 62
   255
370
    50
100
AcDbLine
 10
4850.827398431597
 20
7662.790982621652
 30
0.0
 11
4797.810115642097
 21
7609.773699832153
 31
0.0
  0
LINE
  5
E2
330
1F
100
AcDbEntity
  8
KIGOU
  6
Continuous
 62
   255
370
    50
100
AcDbLine
 10
4850.827398431597
 20
7658.300854561154
 30
0.0
 11
4799.280623924898
 21
7606.754080054354
 31
0.0
  0
LINE
  5
E3
330
1F
100
AcDbEntity
  8
KIGOU
  6
Continuous
 62
   255
370
    50
100
AcDbLine
 10
4850.827398431597
 20
7653.810726500654
 30
0.0
 11
4800.808648866997
 21
7603.791976936054
 31
0.0
  0
LINE
  5
E4
330
1F
100
AcDbEntity
  8
KIGOU
  6
Continuous
 62
   255
370
    50
100
AcDbLine
 10
4850.827398431597
 20
7649.320598440053
 30
0.0
 11
4802.392936848897
 21
7600.886136857252
 31
0.0
  0
LINE
  5
E5
330
1F
100
AcDbEntity
  8
KIGOU
  6
Continuous
 62
   255
370
    50
100
AcDbLine
 10
4850.827398431597
 20
7644.830470379554
 30
0.0
 11
4804.032364689698
 21
7598.035436637553
 31
0.0
  0
LINE
  5
E6
330
1F
100
AcDbEntity
  8
KIGOU
  6
Continuous
 62
   255
370
    50
100
AcDbLine
 10
4850.827398431597
 20
7640.340342318953
 30
0.0
 11
4805.725929058997
 21
7595.238872946353
 31
0.0
  0
LINE
  5
E7
330
1F
100
AcDbEntity
  8
KIGOU
  6
Continuous
 62
   255
370
    50
100
AcDbLine
 10
4850.827398431597
 20
7635.850214258454
 30
0.0
 11
4807.472737390997
 21
7592.495553217852
 31
0.0
  0
LINE
  5
E8
330
1F
100
AcDbEntity
  8
KIGOU
  6
Continuous
 62
   255
370
    50
100
AcDbLine
 10
4850.827398431597
 20
7631.360086197952
 30
0.0
 11
4809.272000095298
 21
7589.804687861653
 31
0.0
  0
LINE
  5
E9
330
1F
100
AcDbEntity
  8
KIGOU
  6
Continuous
 62
   255
370
    50
100
AcDbLine
 10
4850.827398431597
 20
7626.869958137353
 30
0.0
 11
4811.123023893498
 21
7587.165583599253
 31
0.0
  0
LINE
  5
EA
330
1F
100
AcDbEntity
  8
KIGOU
  6
Continuous
 62
   255
370
    50
100
AcDbLine
 10
4850.827398431597
 20
7622.379830076853
 30
0.0
 11
4813.025206143697
 21
7584.577637788953
 31
0.0
  0
LINE
  5
EB
330
1F
100
AcDbEntity
  8
KIGOU
  6
Continuous
 62
   255
370
    50
100
AcDbLine
 10
4850.827398431597
 20
7617.889702016353
 30
0.0
 11
4814.978030038597
 21
7582.040333623254
 31
0.0
  0
LINE
  5
EC
330
1F
100
AcDbEntity
  8
KIGOU
  6
Continuous
 62
   255
370
    50
100
AcDbLine
 10
4850.827398431597
 20
7613.399573955756
 30
0.0
 11
4816.981060584098
 21
7579.553236108252
 31
0.0
  0
LINE
  5
ED
330
1F
100
AcDbEntity
  8
KIGOU
  6
Continuous
 62
   255
370
    50
100
AcDbLine
 10
4850.827398431597
 20
7608.909445895253
 30
0.0
 11
4819.033941283798
 21
7577.115988747354
 31
0.0
  0
LINE
  5
EE
330
1F
100
AcDbEntity
  8
KIGOU
  6
Continuous
 62
   255
370
    50
100
AcDbLine
 10
4850.827398431597
 20
7604.419317834754
 30
0.0
 11
4821.136391468097
 21
7574.728310871255
 31
0.0
  0
LINE
  5
EF
330
1F
100
AcDbEntity
  8
KIGOU
  6
Continuous
 62
   255
370
    50
100
AcDbLine
 10
4850.827398431597
 20
7599.929189774153
 30
0.0
 11
4823.288204221397
 21
7572.389995563953
 31
0.0
  0
LINE
  5
F0
330
1F
100
AcDbEntity
  8
KIGOU
  6
Continuous
 62
   255
370
    50
100
AcDbLine
 10
4850.827398431597
 20
7595.439061713654
 30
0.0
 11
4825.489244869497
 21
7570.100908151553
 31
0.0
  0
LINE
  5
F1
330
1F
100
AcDbEntity
  8
KIGOU
  6
Continuous
 62
   255
370
    50
100
AcDbLine
 10
4850.827398431597
 20
7590.948933653153
 30
0.0
 11
4827.739450004097
 21
7567.860985225653
 31
0.0
  0
LINE
  5
F2
330
1F
100
AcDbEntity
  8
KIGOU
  6
Continuous
 62
   255
370
    50
100
AcDbLine
 10
4850.827398431597
 20
7586.458805592553
 30
0.0
 11
4830.038827024498
 21
7565.670234185453
 31
0.0
  0
LINE
  5
F3
330
1F
100
AcDbEntity
  8
KIGOU
  6
Continuous
 62
   255
370
    50
100
AcDbLine
 10
4850.827398431597
 20
7581.968677532052
 30
0.0
 11
4832.387454191096
 21
7563.528733291453
 31
0.0
  0
LINE
  5
F4
330
1F
100
AcDbEntity
  8
KIGOU
  6
Continuous
 62
   255
370
    50
100
AcDbLine
 10
4850.827398431597
 20
7577.478549471553
 30
0.0
 11
4834.785481190497
 21
7561.436632230452
 31
0.0
  0
LINE
  5
F5
330
1F
100
AcDbEntity
  8
KIGOU
  6
Continuous
 62
   255
370
    50
100
AcDbLine
 10
4850.827398431597
 20
7572.988421410953
 30
0.0
 11
4837.233130222798
 21
7559.394153202154
 31
0.0
  0
LINE
  5
F6
330
1F
100
AcDbEntity
  8
KIGOU
  6
Continuous
 62
   255
370
    50
100
AcDbLine
 10
4850.827398431597
 20
7568.498293350453
 30
0.0
 11
4839.730697627798
 21
7557.401592546653
 31
0.0
  0
LINE
  5
F7
330
1F
100
AcDbEntity
  8
KIGOU
  6
Continuous
 62
   255
370
    50
100
AcDbLine
 10
4850.827398431597
 20
7564.008165289954
 30
0.0
 11
4842.278556079998
 21
7555.459322938254
 31
0.0
  0
LINE
  5
F8
330
1F
100
AcDbEntity
  8
KIGOU
  6
Continuous
 62
   255
370
    50
100
AcDbLine
 10
4850.827398431597
 20
7559.518037229354
 30
0.0
 11
4844.877157389798
 21
7553.567796187553
 31
0.0
  0
LINE
  5
F9
330
1F
100
AcDbEntity
  8
KIGOU
  6
Continuous
 62
   255
370
    50
100
AcDbLine
 10
4850.827398431597
 20
7555.027909168853
 30
0.0
 11
4847.527035961698
 21
7551.727546698853
 31
0.0
  0
LINE
  5
FA
330
1F
100
AcDbEntity
  8
KIGOU
  6
Continuous
 62
   255
370
    50
100
AcDbLine
 10
4850.827398431597
 20
7550.537781108355
 30
0.0
 11
4850.228812971497
 21
7549.939195648152
 31
0.0
  0
ARC
  5
FB
330
1F
100
AcDbEntity
  8
KIGOU
  6
Continuous
 62
   255
370
    50
100
AcDbCircle
 10
4928.916327148198
 20
7671.752536444654
 30
0.0
 40
145.0179812412998
100
AcDbArc
 50
122.5800597904102
 51
237.4199402095746
  0
LINE
  5
FC
330
1F
100
AcDbEntity
  8
KIGOU
  6
Continuous
 62
   255
370
    50
100
AcDbLine
 10
4850.827398431597
 20
7793.950466440253
 30
0.0
 11
4850.827398431597
 21
7549.554606449054
 31
0.0
  0
LINE
  5
FD
330
1F
100
AcDbEntity
  8
SONOTA
  6
Continuous
 62
   255
370
    50
100
AcDbLine
 10
4691.398345907001
 20
9396.770517685955
 30
0.0
 11
4691.398345907001
 21
8606.770517685955
 31
0.0
  0
LINE
  5
FE
330
1F
100
AcDbEntity
  8
SONOTA
  6
Continuous
 62
   255
370
    50
100
AcDbLine
 10
4658.898345907001
 20
8631.770517685956
 30
0.0
 11
4708.898345907
 21
8631.770517685956
 31
0.0
  0
LINE
  5
FF
330
1F
100
AcDbEntity
  8
SONOTA
  6
Continuous
 62
   255
370
    50
100
AcDbLine
 10
4783.898345907001
 20
9396.770517685955
 30
0.0
 11
4583.898345907
 21
9396.770517685955
 31
0.0
  0
LINE
  5
100
330
1F
100
AcDbEntity
  8
SONOTA
  6
Continuous
 62
   255
370
    50
100
AcDbLine
 10
4583.898345907
 20
9396.770517685955
 30
0.0
 11
4583.898345907
 21
9699.412502751055
 31
0.0
  0
LINE
  5
101
330
1F
100
AcDbEntity
  8
SONOTA
  6
Continuous
 62
   255
370
    50
100
AcDbLine
 10
4783.898345907001
 20
9396.770517685955
 30
0.0
 11
4783.898345907001
 21
9466.905502750955
 31
0.0
  0
LINE
  5
102
330
1F
100
AcDbEntity
  8
SONOTA
  6
Continuous
 62
   255
370
    50
100
AcDbLine
 10
8911.400345907001
 20
9581.905502751555
 30
0.0
 11
9581.400345907001
 21
9581.905502751455
 31
0.0
  0
LINE
  5
103
330
1F
100
AcDbEntity
  8
SONOTA
  6
Continuous
 62
   255
370
    50
100
AcDbLine
 10
9158.901345906999
 20
8566.905502750953
 30
0.0
 11
10056.4023459074
 21
8566.905502750953
 31
0.0
  0
LINE
  5
104
330
1F
100
AcDbEntity
  8
SONOTA
  6
Continuous
 62
   255
370
    50
100
AcDbLine
 10
8231.400345906899
 20
8641.905502750955
 30
0.0
 11
10056.4023459074
 21
8641.905502750955
 31
0.0
  0
LINE
  5
105
330
1F
100
AcDbEntity
  8
SONOTA
  6
Continuous
 62
   255
370
    50
100
AcDbLine
 10
10056.4023459074
 20
6936.905502751054
 30
0.0
 11
9133.898345907001
 21
6936.905502751054
 31
0.0
  0
LINE
  5
106
330
1F
100
AcDbEntity
  8
SONOTA
  6
Continuous
 62
   255
370
    50
100
AcDbLine
 10
9133.898345907001
 20
6936.905502751054
 30
0.0
 11
9133.898345907001
 21
6204.405502750955
 31
0.0
  0
LINE
  5
107
330
1F
100
AcDbEntity
  8
SONOTA
  6
Continuous
 62
   255
370
    50
100
AcDbLine
 10
8231.400345906899
 20
7079.397002751056
 30
0.0
 11
8231.400345906899
 21
6204.405502750955
 31
0.0
  0
LINE
  5
108
330
1F
100
AcDbEntity
  8
SONOTA
  6
Continuous
 62
   255
370
    50
100
AcDbLine
 10
8191.4003459069
 20
7079.397002751056
 30
0.0
 11
8191.4003459069
 21
6204.405502750955
 31
0.0
  0
LINE
  5
109
330
1F
100
AcDbEntity
  8
SONOTA
  6
Continuous
 62
   255
370
    50
100
AcDbLine
 10
8171.4003459069
 20
6342.456517685955
 30
0.0
 11
8171.4003459069
 21
7062.456517685956
 31
0.0
  0
LINE
  5
10A
330
1F
100
AcDbEntity
  8
KIGOU
  6
Continuous
 62
   255
370
    50
100
AcDbLine
 10
7195.841574683398
 20
6271.334555275852
 30
0.0
 11
7195.841574683398
 21
6481.44702311815
 31
0.0
  0
LINE
  5
10B
330
1F
100
AcDbEntity
  8
KIGOU
  6
Continuous
 62
   255
370
    50
100
AcDbLine
 10
7075.841574683398
 20
6271.334555275852
 30
0.0
 11
7075.841574683398
 21
6481.44702311815
 31
0.0
  0
ARC
  5
10C
330
1F
100
AcDbEntity
  8
KIGOU
  6
Continuous
 62
   255
370
    50
100
AcDbCircle
 10
7135.841574683498
 20
6349.423483992254
 30
0.0
 40
145.0179812412798
100
AcDbArc
 50
327.4199402102497
 51
212.5800597897368
  0
LINE
  5
10D
330
1F
100
AcDbEntity
  8
KIGOU
  6
Continuous
 62
   255
370
    50
100
AcDbLine
 10
7126.842616264299
 20
6271.334555275852
 30
0.0
 11
7185.136375291798
 21
6213.040796248351
 31
0.0
  0
LINE
  5
10E
330
1F
100
AcDbEntity
  8
KIGOU
  6
Continuous
 62
   255
370
    50
100
AcDbLine
 10
7131.332744324797
 20
6271.334555275852
 30
0.0
 11
7188.401685075398
 21
6214.265614525252
 31
0.0
  0
LINE
  5
10F
330
1F
100
AcDbEntity
  8
KIGOU
  6
Continuous
 62
   255
370
    50
100
AcDbLine
 10
7135.822872385299
 20
6271.334555275852
 30
0.0
 11
7191.602878940698
 21
6215.554548720451
 31
0.0
  0
LINE
  5
110
330
1F
100
AcDbEntity
  8
KIGOU
  6
Continuous
 62
   255
370
    50
100
AcDbLine
 10
7140.313000445897
 20
6271.334555275852
 30
0.0
 11
7194.7418784538
 21
6216.905677267951
 31
0.0
  0
LINE
  5
111
330
1F
100
AcDbEntity
  8
KIGOU
  6
Continuous
 62
   255
370
    50
100
AcDbLine
 10
7144.803128506399
 20
6271.334555275852
 30
0.0
 11
7197.820411295896
 21
6218.317272486353
 31
0.0
  0
LINE
  5
112
330
1F
100
AcDbEntity
  8
KIGOU
  6
Continuous
 62
   255
370
    50
100
AcDbLine
 10
7149.293256566997
 20
6271.334555275852
 30
0.0
 11
7200.8400310737
 21
6219.787780769151
 31
0.0
  0
LINE
  5
113
330
1F
100
AcDbEntity
  8
KIGOU
  6
Continuous
 62
   255
370
    50
100
AcDbLine
 10
7153.783384627499
 20
6271.334555275852
 30
0.0
 11
7203.802134192099
 21
6221.315805711252
 31
0.0
  0
LINE
  5
114
330
1F
100
AcDbEntity
  8
KIGOU
  6
Continuous
 62
   255
370
    50
100
AcDbLine
 10
7158.273512687998
 20
6271.334555275852
 30
0.0
 11
7206.707974270797
 21
6222.900093693052
 31
0.0
  0
LINE
  5
115
330
1F
100
AcDbEntity
  8
KIGOU
  6
Continuous
 62
   255
370
    50
100
AcDbLine
 10
7162.763640748599
 20
6271.334555275852
 30
0.0
 11
7209.558674490498
 21
6224.539521533852
 31
0.0
  0
LINE
  5
116
330
1F
100
AcDbEntity
  8
KIGOU
  6
Continuous
 62
   255
370
    50
100
AcDbLine
 10
7167.253768809098
 20
6271.334555275852
 30
0.0
 11
7212.355238181798
 21
6226.233085903252
 31
0.0
  0
LINE
  5
117
330
1F
100
AcDbEntity
  8
KIGOU
  6
Continuous
 62
   255
370
    50
100
AcDbLine
 10
7171.7438968696
 20
6271.334555275852
 30
0.0
 11
7215.098557910199
 21
6227.979894235254
 31
0.0
  0
LINE
  5
118
330
1F
100
AcDbEntity
  8
KIGOU
  6
Continuous
 62
   255
370
    50
100
AcDbLine
 10
7176.234024930199
 20
6271.334555275852
 30
0.0
 11
7217.789423266499
 21
6229.779156939551
 31
0.0
  0
LINE
  5
119
330
1F
100
AcDbEntity
  8
KIGOU
  6
Continuous
 62
   255
370
    50
100
AcDbLine
 10
7180.724152990697
 20
6271.334555275852
 30
0.0
 11
7220.428527528798
 21
6231.630180737752
 31
0.0
  0
LINE
  5
11A
330
1F
100
AcDbEntity
  8
KIGOU
  6
Continuous
 62
   255
370
    50
100
AcDbLine
 10
7013.643644687898
 20
6271.334555275852
 30
0.0
 11
7258.039504679098
 21
6271.334555275852
 31
0.0
  0
ARC
  5
11B
330
1F
100
AcDbEntity
  8
KIGOU
  6
Continuous
 62
   255
370
    50
100
AcDbCircle
 10
7135.841574683498
 20
6349.423483992354
 30
0.0
 40
145.0179812412998
100
AcDbArc
 50
212.5800597897557
 51
327.4199402102394
  0
LINE
  5
11C
330
1F
100
AcDbEntity
  8
KIGOU
  6
Continuous
 62
   255
370
    50
100
AcDbLine
 10
7185.214281051199
 20
6271.334555275852
 30
0.0
 11
7223.016473339198
 21
6233.532362987951
 31
0.0
  0
LINE
  5
11D
330
1F
100
AcDbEntity
  8
KIGOU
  6
Continuous
 62
   255
370
    50
100
AcDbLine
 10
7189.704409111798
 20
6271.334555275852
 30
0.0
 11
7225.553777504799
 21
6235.485186882753
 31
0.0
  0
LINE
  5
11E
330
1F
100
AcDbEntity
  8
KIGOU
  6
Continuous
 62
   255
370
    50
100
AcDbLine
 10
7194.194537172299
 20
6271.334555275852
 30
0.0
 11
7228.040875019899
 21
6237.48821742825
 31
0.0
  0
LINE
  5
11F
330
1F
100
AcDbEntity
  8
KIGOU
  6
Continuous
 62
   255
370
    50
100
AcDbLine
 10
7198.6846652328
 20
6271.334555275852
 30
0.0
 11
7230.4781223807
 21
6239.541098127951
 31
0.0
  0
LINE
  5
120
330
1F
100
AcDbEntity
  8
KIGOU
  6
Continuous
 62
   255
370
    50
100
AcDbLine
 10
7203.174793293399
 20
6271.334555275852
 30
0.0
 11
7232.865800256897
 21
6241.643548312354
 31
0.0
  0
LINE
  5
121
330
1F
100
AcDbEntity
  8
KIGOU
  6
Continuous
 62
   255
370
    50
100
AcDbLine
 10
7207.664921353899
 20
6271.334555275852
 30
0.0
 11
7235.204115564198
 21
6243.795361065651
 31
0.0
  0
LINE
  5
122
330
1F
100
AcDbEntity
  8
KIGOU
  6
Continuous
 62
   255
370
    50
100
AcDbLine
 10
7212.155049414397
 20
6271.334555275852
 30
0.0
 11
7237.493202976499
 21
6245.996401713754
 31
0.0
  0
LINE
  5
123
330
1F
100
AcDbEntity
  8
KIGOU
  6
Continuous
 62
   255
370
    50
100
AcDbLine
 10
7216.645177474998
 20
6271.334555275852
 30
0.0
 11
7239.733125902499
 21
6248.246606848352
 31
0.0
  0
LINE
  5
124
330
1F
100
AcDbEntity
  8
KIGOU
  6
Continuous
 62
   255
370
    50
100
AcDbLine
 10
7221.135305535498
 20
6271.334555275852
 30
0.0
 11
7241.923876942599
 21
6250.545983868752
 31
0.0
  0
LINE
  5
125
330
1F
100
AcDbEntity
  8
KIGOU
  6
Continuous
 62
   255
370
    50
100
AcDbLine
 10
7225.625433595998
 20
6271.334555275852
 30
0.0
 11
7244.065377836598
 21
6252.894611035253
 31
0.0
  0
LINE
  5
126
330
1F
100
AcDbEntity
  8
KIGOU
  6
Continuous
 62
   255
370
    50
100
AcDbLine
 10
7230.115561656598
 20
6271.334555275852
 30
0.0
 11
7246.157478897698
 21
6255.292638034752
 31
0.0
  0
LINE
  5
127
330
1F
100
AcDbEntity
  8
KIGOU
  6
Continuous
 62
   255
370
    50
100
AcDbLine
 10
7234.605689717098
 20
6271.334555275852
 30
0.0
 11
7248.1999579259
 21
6257.740287067049
 31
0.0
  0
LINE
  5
128
330
1F
100
AcDbEntity
  8
KIGOU
  6
Continuous
 62
   255
370
    50
100
AcDbLine
 10
7239.095817777599
 20
6271.334555275852
 30
0.0
 11
7250.192518581499
 21
6260.237854472051
 31
0.0
  0
LINE
  5
129
330
1F
100
AcDbEntity
  8
KIGOU
  6
Continuous
 62
   255
370
    50
100
AcDbLine
 10
7243.585945838199
 20
6271.334555275852
 30
0.0
 11
7252.134788189798
 21
6262.785712924251
 31
0.0
  0
LINE
  5
12A
330
1F
100
AcDbEntity
  8
KIGOU
  6
Continuous
 62
   255
370
    50
100
AcDbLine
 10
7248.076073898698
 20
6271.334555275852
 30
0.0
 11
7254.026314940498
 21
6265.384314234052
 31
0.0
  0
LINE
  5
12B
330
1F
100
AcDbEntity
  8
KIGOU
  6
Continuous
 62
   255
370
    50
100
AcDbLine
 10
7252.566201959198
 20
6271.334555275852
 30
0.0
 11
7255.866564429198
 21
6268.034192805952
 31
0.0
  0
LINE
  5
12C
330
1F
100
AcDbEntity
  8
KIGOU
  6
Continuous
 62
   255
370
    50
100
AcDbLine
 10
7257.056330019797
 20
6271.334555275852
 30
0.0
 11
7257.654915479899
 21
6270.735969815753
 31
0.0
  0
LINE
  5
12D
330
1F
100
AcDbEntity
  8
KIGOU
  6
Continuous
 62
   255
370
    50
100
AcDbLine
 10
7022.598291575099
 20
6258.835550391152
 30
0.0
 11
7045.253641082199
 21
6236.180200884052
 31
0.0
  0
LINE
  5
12E
330
1F
100
AcDbEntity
  8
KIGOU
  6
Continuous
 62
   255
370
    50
100
AcDbLine
 10
7014.589414750899
 20
6271.334555275852
 30
0.0
 11
7060.272690793498
 21
6225.651279233351
 31
0.0
  0
LINE
  5
12F
330
1F
100
AcDbEntity
  8
KIGOU
  6
Continuous
 62
   255
370
    50
100
AcDbLine
 10
7019.079542811399
 20
6271.334555275852
 30
0.0
 11
7070.406455923298
 21
6220.007642164052
 31
0.0
  0
LINE
  5
130
330
1F
100
AcDbEntity
  8
KIGOU
  6
Continuous
 62
   255
370
    50
100
AcDbLine
 10
7023.569670871997
 20
6271.334555275852
 30
0.0
 11
7078.816050654397
 21
6216.088175493453
 31
0.0
  0
LINE
  5
131
330
1F
100
AcDbEntity
  8
KIGOU
  6
Continuous
 62
   255
370
    50
100
AcDbLine
 10
7028.0597989325
 20
6271.334555275852
 30
0.0
 11
7086.243593699497
 21
6213.150760508852
 31
0.0
  0
LINE
  5
132
330
1F
100
AcDbEntity
  8
KIGOU
  6
Continuous
 62
   255
370
    50
100
AcDbLine
 10
7032.549926993096
 20
6271.334555275852
 30
0.0
 11
7093.009191440699
 21
6210.87529082825
 31
0.0
  0
LINE
  5
133
330
1F
100
AcDbEntity
  8
KIGOU
  6
Continuous
 62
   255
370
    50
100
AcDbLine
 10
7037.040055053599
 20
6271.334555275852
 30
0.0
 11
7099.286135271897
 21
6209.088475057553
 31
0.0
  0
LINE
  5
134
330
1F
100
AcDbEntity
  8
KIGOU
  6
Continuous
 62
   255
370
    50
100
AcDbLine
 10
7041.530183114098
 20
6271.334555275852
 30
0.0
 11
7105.180948504899
 21
6207.683789885052
 31
0.0
  0
LINE
  5
135
330
1F
100
AcDbEntity
  8
KIGOU
  6
Continuous
 62
   255
370
    50
100
AcDbLine
 10
7046.020311174599
 20
6271.334555275852
 30
0.0
 11
7110.764736683297
 21
6206.590129767252
 31
0.0
  0
LINE
  5
136
330
1F
100
AcDbEntity
  8
KIGOU
  6
Continuous
 62
   255
370
    50
100
AcDbLine
 10
7050.510439235199
 20
6271.334555275852
 30
0.0
 11
7116.087802161698
 21
6205.757192349352
 31
0.0
  0
LINE
  5
137
330
1F
100
AcDbEntity
  8
KIGOU
  6
Continuous
 62
   255
370
    50
100
AcDbLine
 10
7055.0005672957
 20
6271.334555275852
 30
0.0
 11
7121.187302462498
 21
6205.147820109052
 31
0.0
  0
LINE
  5
138
330
1F
100
AcDbEntity
  8
KIGOU
  6
Continuous
 62
   255
370
    50
100
AcDbLine
 10
7059.4906953563
 20
6271.334555275852
 30
0.0
 11
7126.091618523601
 21
6204.733632108452
 31
0.0
  0
LINE
  5
139
330
1F
100
AcDbEntity
  8
KIGOU
  6
Continuous
 62
   255
370
    50
100
AcDbLine
 10
7063.980823416798
 20
6271.334555275852
 30
0.0
 11
7130.823012536598
 21
6204.492366156052
 31
0.0
  0
LINE
  5
13A
330
1F
100
AcDbEntity
  8
KIGOU
  6
Continuous
 62
   255
370
    50
100
AcDbLine
 10
7068.470951477299
 20
6271.334555275852
 30
0.0
 11
7135.399329668098
 21
6204.406177085052
 31
0.0
  0
LINE
  5
13B
330
1F
100
AcDbEntity
  8
KIGOU
  6
Continuous
 62
   255
370
    50
100
AcDbLine
 10
7072.961079537898
 20
6271.334555275852
 30
0.0
 11
7139.835133581199
 21
6204.460501232554
 31
0.0
  0
LINE
  5
13C
330
1F
100
AcDbEntity
  8
KIGOU
  6
Continuous
 62
   255
370
    50
100
AcDbLine
 10
7077.451207598398
 20
6271.334555275852
 30
0.0
 11
7144.142490512098
 21
6204.643272362153
 31
0.0
  0
LINE
  5
13D
330
1F
100
AcDbEntity
  8
KIGOU
  6
Continuous
 62
   255
370
    50
100
AcDbLine
 10
7081.941335658899
 20
6271.334555275852
 30
0.0
 11
7148.331526496098
 21
6204.944364438652
 31
0.0
  0
LINE
  5
13E
330
1F
100
AcDbEntity
  8
KIGOU
  6
Continuous
 62
   255
370
    50
100
AcDbLine
 10
7086.431463719498
 20
6271.334555275852
 30
0.0
 11
7152.410833231499
 21
6205.355185763852
 31
0.0
  0
LINE
  5
13F
330
1F
100
AcDbEntity
  8
KIGOU
  6
Continuous
 62
   255
370
    50
100
AcDbLine
 10
7090.92159178
 20
6271.334555275852
 30
0.0
 11
7156.387770041897
 21
6205.868377013952
 31
0.0
  0
LINE
  5
140
330
1F
100
AcDbEntity
  8
KIGOU
  6
Continuous
 62
   255
370
    50
100
AcDbLine
 10
7095.411719840498
 20
6271.334555275852
 30
0.0
 11
7160.268692733899
 21
6206.477582382552
 31
0.0
  0
LINE
  5
141
330
1F
100
AcDbEntity
  8
KIGOU
  6
Continuous
 62
   255
370
    50
100
AcDbLine
 10
7099.901847901098
 20
6271.334555275852
 30
0.0
 11
7164.059129894098
 21
6207.177273282851
 31
0.0
  0
LINE
  5
142
330
1F
100
AcDbEntity
  8
KIGOU
  6
Continuous
 62
   255
370
    50
100
AcDbLine
 10
7104.391975961598
 20
6271.334555275852
 30
0.0
 11
7167.763920669701
 21
6207.96261056785
 31
0.0
  0
LINE
  5
143
330
1F
100
AcDbEntity
  8
KIGOU
  6
Continuous
 62
   255
370
    50
100
AcDbLine
 10
7108.882104022097
 20
6271.334555275852
 30
0.0
 11
7171.387323834599
 21
6208.829335463452
 31
0.0
  0
LINE
  5
144
330
1F
100
AcDbEntity
  8
KIGOU
  6
Continuous
 62
   255
370
    50
100
AcDbLine
 10
7113.372232082699
 20
6271.334555275852
 30
0.0
 11
7174.933105124298
 21
6209.773682234251
 31
0.0
  0
LINE
  5
145
330
1F
100
AcDbEntity
  8
KIGOU
  6
Continuous
 62
   255
370
    50
100
AcDbLine
 10
7117.862360143198
 20
6271.334555275852
 30
0.0
 11
7178.404607889898
 21
6210.792307529151
 31
0.0
  0
LINE
  5
146
330
1F
100
AcDbEntity
  8
KIGOU
  6
Continuous
 62
   255
370
    50
100
AcDbLine
 10
7122.3524882037
 20
6271.334555275852
 30
0.0
 11
7181.80481079
 21
6211.882232689653
 31
0.0
  0
LINE
  5
147
330
1F
100
AcDbEntity
  8
SONOTA
  6
Continuous
 62
   255
370
    50
100
AcDbLine
 10
8231.400345906899
 20
6204.405502750955
 30
0.0
 11
9133.898345907001
 21
6204.405502750955
 31
0.0
  0
ARC
  5
148
330
1F
100
AcDbEntity
  8
SONOTA
  6
Continuous
 62
   255
370
    50
100
AcDbCircle
 10
8113.965035907
 20
9466.905502750955
 30
0.0
 40
782.6646899999996
100
AcDbArc
 50
179.9999999999998
 51
269.9999999999998
  0
LINE
  5
149
330
1F
100
AcDbEntity
  8
KIGOU
  6
Continuous
 62
   255
370
    50
100
AcDbLine
 10
6370.266147511
 20
7764.880445369657
 30
0.0
 11
6007.6582168242
 21
7764.880445369657
 31
0.0
  0
LINE
  5
14A
330
1F
100
AcDbEntity
  8
KIGOU
  6
Continuous
 62
   255
370
    50
100
AcDbLine
 10
6370.266147511
 20
7923.272364355355
 30
0.0
 11
6007.6582168242
 21
7923.272364355355
 31
0.0
  0
LINE
  5
14B
330
1F
100
AcDbEntity
  8
KIGOU
  6
Continuous
 62
   255
370
    50
100
AcDbLine
 10
6587.4422051232
 20
7764.880445369657
 30
0.0
 11
6950.050135810002
 21
7764.880445369656
 31
0.0
  0
LINE
  5
14C
330
1F
100
AcDbEntity
  8
KIGOU
  6
Continuous
 62
   255
370
    50
100
AcDbLine
 10
6587.4422051232
 20
7923.272364355355
 30
0.0
 11
6950.050135810002
 21
7923.272364355355
 31
0.0
  0
LINE
  5
14D
330
1F
100
AcDbEntity
  8
KIGOU
  6
Continuous
 62
   255
370
    50
100
AcDbLine
 10
6950.050135810002
 20
7923.272364355355
 30
0.0
 11
6950.050135810002
 21
7764.880445369656
 31
0.0
  0
CIRCLE
  5
14E
330
1F
100
AcDbEntity
  8
KIGOU
  6
Continuous
 62
   255
370
    50
100
AcDbCircle
 10
6478.854176317101
 20
7844.076404862555
 30
0.0
 40
134.3999999999996
  0
LINE
  5
14F
330
1F
100
AcDbEntity
  8
SONOTA
  6
Continuous
 62
   255
370
    50
100
AcDbLine
 10
7331.300345907
 20
9541.905502750955
 30
0.0
 11
5743.899345907
 21
9541.905502750955
 31
0.0
  0
LINE
  5
150
330
1F
100
AcDbEntity
  8
SONOTA
  6
Continuous
 62
   255
370
    50
100
AcDbLine
 10
5553.898345907
 20
9759.412502750854
 30
0.0
 11
5743.899345907
 21
9759.412502750854
 31
0.0
  0
LINE
  5
151
330
1F
100
AcDbEntity
  8
SONOTA
  6
Continuous
 62
   255
370
    50
100
AcDbLine
 10
5553.898345907
 20
9759.412502750854
 30
0.0
 11
5553.898345907
 21
9699.412502751055
 31
0.0
  0
LINE
  5
152
330
1F
100
AcDbEntity
  8
SONOTA
  6
Continuous
 62
   255
370
    50
100
AcDbLine
 10
5743.899345907
 20
9759.412502750854
 30
0.0
 11
5743.899345907
 21
9541.905502750955
 31
0.0
  0
LINE
  5
153
330
1F
100
AcDbEntity
  8
KIGOU
  6
Continuous
 62
   255
370
    50
100
AcDbLine
 10
6007.6582168242
 20
7923.272364355355
 30
0.0
 11
6007.6582168242
 21
7764.880445369657
 31
0.0
  0
LINE
  5
154
330
1F
100
AcDbEntity
  8
KIGOU
  6
Continuous
 62
   255
370
    50
100
AcDbLine
 10
7195.8415746836
 20
9399.976450226153
 30
0.0
 11
7195.8415746836
 21
9189.863982383853
 31
0.0
  0
LINE
  5
155
330
1F
100
AcDbEntity
  8
KIGOU
  6
Continuous
 62
   255
370
    50
100
AcDbLine
 10
7075.841574683599
 20
9399.976450226153
 30
0.0
 11
7075.841574683599
 21
9189.863982383853
 31
0.0
  0
ARC
  5
156
330
1F
100
AcDbEntity
  8
KIGOU
  6
Continuous
 62
   255
370
    50
100
AcDbCircle
 10
7135.841574683599
 20
9321.887521509654
 30
0.0
 40
145.0179812412798
100
AcDbArc
 50
147.4199402102498
 51
32.58005978975022
  0
LINE
  5
157
330
1F
100
AcDbEntity
  8
KIGOU
  6
Continuous
 62
   255
370
    50
100
AcDbLine
 10
7239.1332223739
 20
9399.976450226153
 30
0.0
 11
7178.673957926298
 21
9460.435714673755
 31
0.0
  0
LINE
  5
158
330
1F
100
AcDbEntity
  8
KIGOU
  6
Continuous
 62
   255
370
    50
100
AcDbLine
 10
7234.643094313397
 20
9399.976450226153
 30
0.0
 11
7172.3970140951
 21
9462.222530444453
 31
0.0
  0
LINE
  5
159
330
1F
100
AcDbEntity
  8
KIGOU
  6
Continuous
 62
   255
370
    50
100
AcDbLine
 10
7230.152966252899
 20
9399.976450226153
 30
0.0
 11
7166.502200861998
 21
9463.627215616953
 31
0.0
  0
LINE
  5
15A
330
1F
100
AcDbEntity
  8
KIGOU
  6
Continuous
 62
   255
370
    50
100
AcDbLine
 10
7225.662838192297
 20
9399.976450226153
 30
0.0
 11
7160.918412683699
 21
9464.720875734854
 31
0.0
  0
LINE
  5
15B
330
1F
100
AcDbEntity
  8
KIGOU
  6
Continuous
 62
   255
370
    50
100
AcDbLine
 10
7221.172710131798
 20
9399.976450226153
 30
0.0
 11
7155.595347205299
 21
9465.553813152654
 31
0.0
  0
LINE
  5
15C
330
1F
100
AcDbEntity
  8
KIGOU
  6
Continuous
 62
   255
370
    50
100
AcDbLine
 10
7216.682582071298
 20
9399.976450226153
 30
0.0
 11
7150.495846904398
 21
9466.163185392954
 31
0.0
  0
LINE
  5
15D
330
1F
100
AcDbEntity
  8
KIGOU
  6
Continuous
 62
   255
370
    50
100
AcDbLine
 10
7212.192454010698
 20
9399.976450226153
 30
0.0
 11
7145.5915308433
 21
9466.577373393553
 31
0.0
  0
LINE
  5
15E
330
1F
100
AcDbEntity
  8
KIGOU
  6
Continuous
 62
   255
370
    50
100
AcDbLine
 10
7207.702325950199
 20
9399.976450226153
 30
0.0
 11
7140.860136830399
 21
9466.818639345951
 31
0.0
  0
LINE
  5
15F
330
1F
100
AcDbEntity
  8
KIGOU
  6
Continuous
 62
   255
370
    50
100
AcDbLine
 10
7203.212197889698
 20
9399.976450226153
 30
0.0
 11
7136.283819698899
 21
9466.904828416953
 31
0.0
  0
LINE
  5
160
330
1F
100
AcDbEntity
  8
KIGOU
  6
Continuous
 62
   255
370
    50
100
AcDbLine
 10
7198.722069829099
 20
9399.976450226153
 30
0.0
 11
7131.848015785799
 21
9466.850504269454
 31
0.0
  0
LINE
  5
161
330
1F
100
AcDbEntity
  8
KIGOU
  6
Continuous
 62
   255
370
    50
100
AcDbLine
 10
7194.231941768599
 20
9399.976450226153
 30
0.0
 11
7127.540658854799
 21
9466.667733139953
 31
0.0
  0
LINE
  5
162
330
1F
100
AcDbEntity
  8
KIGOU
  6
Continuous
 62
   255
370
    50
100
AcDbLine
 10
7189.741813707998
 20
9399.976450226153
 30
0.0
 11
7123.351622870797
 21
9466.366641063354
 31
0.0
  0
LINE
  5
163
330
1F
100
AcDbEntity
  8
KIGOU
  6
Continuous
 62
   255
370
    50
100
AcDbLine
 10
7185.251685647499
 20
9399.976450226153
 30
0.0
 11
7119.272316135498
 21
9465.955819738156
 31
0.0
  0
LINE
  5
164
330
1F
100
AcDbEntity
  8
KIGOU
  6
Continuous
 62
   255
370
    50
100
AcDbLine
 10
7013.643644687998
 20
9399.976450226153
 30
0.0
 11
7258.039504679198
 21
9399.976450226153
 31
0.0
  0
ARC
  5
165
330
1F
100
AcDbEntity
  8
KIGOU
  6
Continuous
 62
   255
370
    50
100
AcDbCircle
 10
7135.841574683599
 20
9321.887521509654
 30
0.0
 40
145.0179812412998
100
AcDbArc
 50
32.58005978975037
 51
147.4199402102598
  0
LINE
  5
166
330
1F
100
AcDbEntity
  8
KIGOU
  6
Continuous
 62
   255
370
    50
100
AcDbLine
 10
7249.084857791898
 20
9412.475455110853
 30
0.0
 11
7226.429508284799
 21
9435.130804617953
 31
0.0
  0
LINE
  5
167
330
1F
100
AcDbEntity
  8
KIGOU
  6
Continuous
 62
   255
370
    50
100
AcDbLine
 10
7257.093734616098
 20
9399.976450226153
 30
0.0
 11
7211.410458573499
 21
9445.659726268754
 31
0.0
  0
LINE
  5
168
330
1F
100
AcDbEntity
  8
KIGOU
  6
Continuous
 62
   255
370
    50
100
AcDbLine
 10
7252.603606555498
 20
9399.976450226153
 30
0.0
 11
7201.2766934437
 21
9451.303363338053
 31
0.0
  0
LINE
  5
169
330
1F
100
AcDbEntity
  8
KIGOU
  6
Continuous
 62
   255
370
    50
100
AcDbLine
 10
7248.113478495
 20
9399.976450226153
 30
0.0
 11
7192.867098712499
 21
9455.222830008654
 31
0.0
  0
LINE
  5
16A
330
1F
100
AcDbEntity
  8
KIGOU
  6
Continuous
 62
   255
370
    50
100
AcDbLine
 10
7243.623350434498
 20
9399.976450226153
 30
0.0
 11
7185.439555667399
 21
9458.160244993152
 31
0.0
  0
LINE
  5
16B
330
1F
100
AcDbEntity
  8
KIGOU
  6
Continuous
 62
   255
370
    50
100
AcDbLine
 10
7180.761557586999
 20
9399.976450226153
 30
0.0
 11
7115.295379325
 21
9465.442628488054
 31
0.0
  0
LINE
  5
16C
330
1F
100
AcDbEntity
  8
KIGOU
  6
Continuous
 62
   255
370
    50
100
AcDbLine
 10
7176.271429526399
 20
9399.976450226153
 30
0.0
 11
7111.414456633098
 21
9464.833423119453
 31
0.0
  0
LINE
  5
16D
330
1F
100
AcDbEntity
  8
KIGOU
  6
Continuous
 62
   255
370
    50
100
AcDbLine
 10
7171.781301465899
 20
9399.976450226153
 30
0.0
 11
7107.624019472799
 21
9464.133732219254
 31
0.0
  0
LINE
  5
16E
330
1F
100
AcDbEntity
  8
KIGOU
  6
Continuous
 62
   255
370
    50
100
AcDbLine
 10
7167.291173405399
 20
9399.976450226153
 30
0.0
 11
7103.919228697298
 21
9463.348394934154
 31
0.0
  0
LINE
  5
16F
330
1F
100
AcDbEntity
  8
KIGOU
  6
Continuous
 62
   255
370
    50
100
AcDbLine
 10
7162.801045344796
 20
9399.976450226153
 30
0.0
 11
7100.295825532398
 21
9462.481670038555
 31
0.0
  0
LINE
  5
170
330
1F
100
AcDbEntity
  8
KIGOU
  6
Continuous
 62
   255
370
    50
100
AcDbLine
 10
7158.310917284298
 20
9399.976450226153
 30
0.0
 11
7096.750044242699
 21
9461.537323267752
 31
0.0
  0
LINE
  5
171
330
1F
100
AcDbEntity
  8
KIGOU
  6
Continuous
 62
   255
370
    50
100
AcDbLine
 10
7153.820789223799
 20
9399.976450226153
 30
0.0
 11
7093.278541477097
 21
9460.518697972853
 31
0.0
  0
LINE
  5
172
330
1F
100
AcDbEntity
  8
KIGOU
  6
Continuous
 62
   255
370
    50
100
AcDbLine
 10
7149.330661163197
 20
9399.976450226153
 30
0.0
 11
7089.878338576998
 21
9459.428772812355
 31
0.0
  0
LINE
  5
173
330
1F
100
AcDbEntity
  8
KIGOU
  6
Continuous
 62
   255
370
    50
100
AcDbLine
 10
7144.840533102699
 20
9399.976450226153
 30
0.0
 11
7086.546774075199
 21
9458.270209253655
 31
0.0
  0
LINE
  5
174
330
1F
100
AcDbEntity
  8
KIGOU
  6
Continuous
 62
   255
370
    50
100
AcDbLine
 10
7140.350405042198
 20
9399.976450226153
 30
0.0
 11
7083.281464291599
 21
9457.045390976751
 31
0.0
  0
LINE
  5
175
330
1F
100
AcDbEntity
  8
KIGOU
  6
Continuous
 62
   255
370
    50
100
AcDbLine
 10
7135.860276981599
 20
9399.976450226153
 30
0.0
 11
7080.080270426299
 21
9455.756456781553
 31
0.0
  0
LINE
  5
176
330
1F
100
AcDbEntity
  8
KIGOU
  6
Continuous
 62
   255
370
    50
100
AcDbLine
 10
7131.3701489211
 20
9399.976450226153
 30
0.0
 11
7076.941270913197
 21
9454.405328234054
 31
0.0
  0
LINE
  5
177
330
1F
100
AcDbEntity
  8
KIGOU
  6
Continuous
 62
   255
370
    50
100
AcDbLine
 10
7126.880020860598
 20
9399.976450226153
 30
0.0
 11
7073.862738070998
 21
9452.993733015654
 31
0.0
  0
LINE
  5
178
330
1F
100
AcDbEntity
  8
KIGOU
  6
Continuous
 62
   255
370
    50
100
AcDbLine
 10
7122.389892799999
 20
9399.976450226153
 30
0.0
 11
7070.843118293298
 21
9451.523224732853
 31
0.0
  0
LINE
  5
179
330
1F
100
AcDbEntity
  8
KIGOU
  6
Continuous
 62
   255
370
    50
100
AcDbLine
 10
7117.899764739497
 20
9399.976450226153
 30
0.0
 11
7067.881015174899
 21
9449.995199790754
 31
0.0
  0
LINE
  5
17A
330
1F
100
AcDbEntity
  8
KIGOU
  6
Continuous
 62
   255
370
    50
100
AcDbLine
 10
7113.409636678999
 20
9399.976450226153
 30
0.0
 11
7064.975175096199
 21
9448.410911808953
 31
0.0
  0
LINE
  5
17B
330
1F
100
AcDbEntity
  8
KIGOU
  6
Continuous
 62
   255
370
    50
100
AcDbLine
 10
7108.919508618398
 20
9399.976450226153
 30
0.0
 11
7062.1244748764
 21
9446.771483968154
 31
0.0
  0
LINE
  5
17C
330
1F
100
AcDbEntity
  8
KIGOU
  6
Continuous
 62
   255
370
    50
100
AcDbLine
 10
7104.429380557899
 20
9399.976450226153
 30
0.0
 11
7059.327911185199
 21
9445.077919598851
 31
0.0
  0
LINE
  5
17D
330
1F
100
AcDbEntity
  8
KIGOU
  6
Continuous
 62
   255
370
    50
100
AcDbLine
 10
7099.939252497396
 20
9399.976450226153
 30
0.0
 11
7056.584591456798
 21
9443.331111266753
 31
0.0
  0
LINE
  5
17E
330
1F
100
AcDbEntity
  8
KIGOU
  6
Continuous
 62
   255
370
    50
100
AcDbLine
 10
7095.449124436798
 20
9399.976450226153
 30
0.0
 11
7053.893726100498
 21
9441.531848562456
 31
0.0
  0
LINE
  5
17F
330
1F
100
AcDbEntity
  8
KIGOU
  6
Continuous
 62
   255
370
    50
100
AcDbLine
 10
7090.958996376299
 20
9399.976450226153
 30
0.0
 11
7051.254621838199
 21
9439.680824764253
 31
0.0
  0
LINE
  5
180
330
1F
100
AcDbEntity
  8
KIGOU
  6
Continuous
 62
   255
370
    50
100
AcDbLine
 10
7086.468868315799
 20
9399.976450226153
 30
0.0
 11
7048.666676027799
 21
9437.778642514053
 31
0.0
  0
LINE
  5
181
330
1F
100
AcDbEntity
  8
KIGOU
  6
Continuous
 62
   255
370
    50
100
AcDbLine
 10
7081.978740255199
 20
9399.976450226153
 30
0.0
 11
7046.129371862097
 21
9435.825818619249
 31
0.0
  0
LINE
  5
182
330
1F
100
AcDbEntity
  8
KIGOU
  6
Continuous
 62
   255
370
    50
100
AcDbLine
 10
7077.488612194698
 20
9399.976450226153
 30
0.0
 11
7043.642274347097
 21
9433.822788073754
 31
0.0
  0
LINE
  5
183
330
1F
100
AcDbEntity
  8
KIGOU
  6
Continuous
 62
   255
370
    50
100
AcDbLine
 10
7072.998484134099
 20
9399.976450226153
 30
0.0
 11
7041.205026986298
 21
9431.769907374053
 31
0.0
  0
LINE
  5
184
330
1F
100
AcDbEntity
  8
KIGOU
  6
Continuous
 62
   255
370
    50
100
AcDbLine
 10
7068.508356073598
 20
9399.976450226153
 30
0.0
 11
7038.817349110099
 21
9429.667457189653
 31
0.0
  0
LINE
  5
185
330
1F
100
AcDbEntity
  8
KIGOU
  6
Continuous
 62
   255
370
    50
100
AcDbLine
 10
7064.018228013099
 20
9399.976450226153
 30
0.0
 11
7036.479033802799
 21
9427.515644436353
 31
0.0
  0
LINE
  5
186
330
1F
100
AcDbEntity
  8
KIGOU
  6
Continuous
 62
   255
370
    50
100
AcDbLine
 10
7059.528099952499
 20
9399.976450226153
 30
0.0
 11
7034.189946390399
 21
9425.314603788254
 31
0.0
  0
LINE
  5
187
330
1F
100
AcDbEntity
  8
KIGOU
  6
Continuous
 62
   255
370
    50
100
AcDbLine
 10
7055.037971891999
 20
9399.976450226153
 30
0.0
 11
7031.950023464498
 21
9423.064398653654
 31
0.0
  0
LINE
  5
188
330
1F
100
AcDbEntity
  8
KIGOU
  6
Continuous
 62
   255
370
    50
100
AcDbLine
 10
7050.547843831499
 20
9399.976450226153
 30
0.0
 11
7029.759272424398
 21
9420.765021633253
 31
0.0
  0
LINE
  5
189
330
1F
100
AcDbEntity
  8
KIGOU
  6
Continuous
 62
   255
370
    50
100
AcDbLine
 10
7046.057715770896
 20
9399.976450226153
 30
0.0
 11
7027.617771530399
 21
9418.416394466753
 31
0.0
  0
LINE
  5
18A
330
1F
100
AcDbEntity
  8
KIGOU
  6
Continuous
 62
   255
370
    50
100
AcDbLine
 10
7041.5675877104
 20
9399.976450226153
 30
0.0
 11
7025.525670469298
 21
9416.018367467254
 31
0.0
  0
LINE
  5
18B
330
1F
100
AcDbEntity
  8
KIGOU
  6
Continuous
 62
   255
370
    50
100
AcDbLine
 10
7037.077459649899
 20
9399.976450226153
 30
0.0
 11
7023.483191441099
 21
9413.570718434954
 31
0.0
  0
LINE
  5
18C
330
1F
100
AcDbEntity
  8
KIGOU
  6
Continuous
 62
   255
370
    50
100
AcDbLine
 10
7032.587331589298
 20
9399.976450226153
 30
0.0
 11
7021.490630785498
 21
9411.073151029954
 31
0.0
  0
LINE
  5
18D
330
1F
100
AcDbEntity
  8
KIGOU
  6
Continuous
 62
   255
370
    50
100
AcDbLine
 10
7028.097203528799
 20
9399.976450226153
 30
0.0
 11
7019.548361177099
 21
9408.525292577853
 31
0.0
  0
LINE
  5
18E
330
1F
100
AcDbEntity
  8
KIGOU
  6
Continuous
 62
   255
370
    50
100
AcDbLine
 10
7023.607075468299
 20
9399.976450226153
 30
0.0
 11
7017.656834426499
 21
9405.926691267952
 31
0.0
  0
LINE
  5
18F
330
1F
100
AcDbEntity
  8
KIGOU
  6
Continuous
 62
   255
370
    50
100
AcDbLine
 10
7019.116947407699
 20
9399.976450226153
 30
0.0
 11
7015.816584937799
 21
9403.276812696155
 31
0.0
  0
LINE
  5
190
330
1F
100
AcDbEntity
  8
KIGOU
  6
Continuous
 62
   255
370
    50
100
AcDbLine
 10
7014.6268193472
 20
9399.976450226153
 30
0.0
 11
7014.028233886997
 21
9400.575035686254
 31
0.0
  0
LINE
  5
191
330
1F
100
AcDbEntity
  8
SONOTA
  6
Continuous
 62
   255
370
    50
100
AcDbLine
 10
7331.300345907
 20
9466.905502750955
 30
0.0
 11
7331.300345907
 21
9541.905502750955
 31
0.0
  0
LINE
  5
192
330
1F
100
AcDbEntity
  8
SONOTA
  6
Continuous
 62
   255
370
    50
100
AcDbLine
 10
8231.400345906899
 20
8566.905502750953
 30
0.0
 11
8231.400345906899
 21
7782.456517685955
 31
0.0
  0
LINE
  5
193
330
1F
100
AcDbEntity
  8
SONOTA
  6
Continuous
 62
   255
370
    50
100
AcDbLine
 10
9158.901345906999
 20
7824.964517685856
 30
0.0
 11
9158.901345906999
 21
8566.905502750953
 31
0.0
  0
LINE
  5
194
330
1F
100
AcDbEntity
  8
SONOTA
  6
Continuous
 62
   255
370
    50
100
AcDbLine
 10
9128.901345906999
 20
7824.964517685856
 30
0.0
 11
9128.901345906999
 21
8566.905502750953
 31
0.0
  0
LINE
  5
195
330
1F
100
AcDbEntity
  8
SONOTA
  6
Continuous
 62
   255
370
    50
100
AcDbLine
 10
8156.4003459069
 20
9466.905502750955
 30
0.0
 11
8156.4003459069
 21
7782.456517685955
 31
0.0
  0
LINE
  5
196
330
1F
100
AcDbEntity
  8
SONOTA
  6
Continuous
 62
   255
370
    50
100
AcDbLine
 10
8171.4003459069
 20
7062.456517685956
 30
0.0
 11
8171.4003459069
 21
7782.456517685955
 31
0.0
  0
LINE
  5
197
330
1F
100
AcDbEntity
  8
SONOTA
  6
Continuous
 62
   255
370
    50
100
AcDbLine
 10
8231.400345906899
 20
7079.397002751056
 30
0.0
 11
8191.4003459069
 21
7079.397002751056
 31
0.0
  0
LINE
  5
198
330
1F
100
AcDbEntity
  8
SONOTA
  6
Continuous
 62
   255
370
    50
100
AcDbLine
 10
8156.4003459069
 20
7782.456517685955
 30
0.0
 11
8231.400345906899
 21
7782.456517685955
 31
0.0
  0
CIRCLE
  5
199
330
1F
100
AcDbEntity
  8
KIGOU
  6
Continuous
 62
   255
370
    50
100
AcDbCircle
 10
9143.901345906999
 20
7380.935010218454
 30
0.0
 40
145.0179812412898
  0
LINE
  5
19A
330
1F
100
AcDbEntity
  8
SONOTA
  6
Continuous
 62
   255
370
    50
100
AcDbLine
 10
9128.901345906999
 20
7824.964517685856
 30
0.0
 11
9158.901345906999
 21
7824.964517685856
 31
0.0
  0
LINE
  5
19B
330
1F
100
AcDbEntity
  8
KIGOU
  6
Continuous
 62
   255
370
    50
100
AcDbLine
 10
8298.329398431593
 20
9359.797665855152
 30
0.0
 11
8508.441866273792
 21
9359.797665855152
 31
0.0
  0
LINE
  5
19C
330
1F
100
AcDbEntity
  8
KIGOU
  6
Continuous
 62
   255
370
    50
100
AcDbLine
 10
8298.329398431593
 20
9479.797665855152
 30
0.0
 11
8508.441866273792
 21
9479.797665855152
 31
0.0
  0
ARC
  5
19D
330
1F
100
AcDbEntity
  8
KIGOU
  6
Continuous
 62
   255
370
    50
100
AcDbCircle
 10
8376.418327148096
 20
9419.797665855152
 30
0.0
 40
145.0179812412807
100
AcDbArc
 50
237.4199402095885
 51
122.5800597904199
  0
LINE
  5
19E
330
1F
100
AcDbEntity
  8
SONOTA
  6
Continuous
 62
   255
370
    50
100
AcDbLine
 10
8156.4003459069
 20
9641.905502750955
 30
0.0
 11
8931.400345907001
 21
9641.905502750955
 31
0.0
  0
LINE
  5
19F
330
1F
100
AcDbEntity
  8
SONOTA
  6
Continuous
 62
   255
370
    50
100
AcDbLine
 10
8931.400345907001
 20
9601.905502751457
 30
0.0
 11
8231.400345906899
 21
9601.905502751555
 31
0.0
  0
LINE
  5
1A0
330
1F
100
AcDbEntity
  8
SONOTA
  6
Continuous
 62
   255
370
    50
100
AcDbLine
 10
8241.400345907001
 20
9581.905502751555
 30
0.0
 11
8911.400345907001
 21
9581.905502751555
 31
0.0
  0
LINE
  5
1A1
330
1F
100
AcDbEntity
  8
SONOTA
  6
Continuous
 62
   255
370
    50
100
AcDbLine
 10
8304.197345907
 20
9096.225517685754
 30
0.0
 11
8521.263345907
 21
9104.651517685854
 31
0.0
  0
LINE
  5
1A2
330
1F
100
AcDbEntity
  8
SONOTA
  6
Continuous
 62
   255
370
    50
100
AcDbLine
 10
8521.263345907
 20
8707.806517685754
 30
0.0
 11
8304.197345907
 21
8716.227517685957
 31
0.0
  0
LINE
  5
1A3
330
1F
100
AcDbEntity
  8
SONOTA
  6
Continuous
 62
   255
370
    50
100
AcDbLine
 10
8231.400345906899
 20
8566.905502750953
 30
0.0
 11
9128.901345906999
 21
8566.905502750953
 31
0.0
  0
ARC
  5
1A4
330
1F
100
AcDbEntity
  8
SONOTA
  6
Continuous
 62
   255
370
    50
100
AcDbCircle
 10
8950.796345906898
 20
8906.228517685855
 30
0.0
 40
700.0
100
AcDbArc
 50
166.51997000002
 51
179.9999799998899
  0
LINE
  5
1A5
330
1F
100
AcDbEntity
  8
SONOTA
  6
Continuous
 62
   255
370
    50
100
AcDbLine
 10
8231.400345906899
 20
9601.905502751555
 30
0.0
 11
8231.400345906899
 21
8641.905502750955
 31
0.0
  0
LINE
  5
1A6
330
1F
100
AcDbEntity
  8
SONOTA
  6
Continuous
 62
   255
370
    50
100
AcDbLine
 10
8113.965035907
 20
9466.905502750955
 30
0.0
 11
8113.965035907
 21
8684.240502750954
 31
0.0
  0
ARC
  5
1A7
330
1F
100
AcDbEntity
  8
SONOTA
  6
Continuous
 62
   255
370
    50
100
AcDbCircle
 10
8950.796345906898
 20
8906.228517685855
 30
0.0
 40
700.0
100
AcDbArc
 50
179.9999999999998
 51
193.4699699999797
  0
ARC
  5
1A8
330
1F
100
AcDbEntity
  8
SONOTA
  6
Continuous
 62
   255
370
    50
100
AcDbCircle
 10
8304.1973459071
 20
8751.228517685853
 30
0.0
 40
34.99999899999966
100
AcDbArc
 50
193.4699699999397
 51
270.0699899995386
  0
ARC
  5
1A9
330
1F
100
AcDbEntity
  8
SONOTA
  6
Continuous
 62
   255
370
    50
100
AcDbCircle
 10
8304.197345907
 20
9061.228517685955
 30
0.0
 40
34.99999899999966
100
AcDbArc
 50
90.0000000000268
 51
166.5199700001298
  0
LINE
  5
1AA
330
1F
100
AcDbEntity
  8
SONOTA
  6
Continuous
 62
   255
370
    50
100
AcDbLine
 10
8156.4003459069
 20
9641.905502750955
 30
0.0
 11
8156.4003459069
 21
9541.905502750955
 31
0.0
  0
LINE
  5
1AB
330
1F
100
AcDbEntity
  8
SONOTA
  6
Continuous
 62
   255
370
    50
100
AcDbLine
 10
8113.965035907
 20
9541.905502750955
 30
0.0
 11
8156.4003459069
 21
9541.905502750955
 31
0.0
  0
LINE
  5
1AC
330
1F
100
AcDbEntity
  8
SONOTA
  6
Continuous
 62
   255
370
    50
100
AcDbLine
 10
8113.965035907
 20
9466.905502750955
 30
0.0
 11
8156.4003459069
 21
9466.905502750955
 31
0.0
  0
LINE
  5
1AD
330
1F
100
AcDbEntity
  8
SONOTA
  6
Continuous
 62
   255
370
    50
100
AcDbLine
 10
8113.965035907
 20
9466.905502750955
 30
0.0
 11
8113.965035907
 21
9541.905502750955
 31
0.0
  0
LINE
  5
1AE
330
1F
100
AcDbEntity
  8
SONOTA
  6
Continuous
 62
   255
370
    50
100
AcDbLine
 10
8496.297345907
 20
9015.229517685955
 30
0.0
 11
8496.297345907
 21
9078.672517685955
 31
0.0
  0
ARC
  5
1AF
330
1F
100
AcDbEntity
  8
SONOTA
  6
Continuous
 62
   255
370
    50
100
AcDbCircle
 10
8795.454345906899
 20
8881.878517685853
 30
0.0
 40
209.9999900000003
100
AcDbArc
 50
32.75958200035385
 51
80.38725200042387
  0
CIRCLE
  5
1B0
330
1F
100
AcDbEntity
  8
KIGOU
  6
Continuous
 62
   255
370
    50
100
AcDbCircle
 10
9143.9013628585
 20
9104.405502751055
 30
0.0
 40
145.0179812412898
  0
ARC
  5
1B1
330
1F
100
AcDbEntity
  8
SONOTA
  6
Continuous
 62
   255
370
    50
100
AcDbCircle
 10
8833.295345907
 20
8906.228517685855
 30
0.0
 40
165.0
100
AcDbArc
 50
0.0000000000056847
 51
32.75958200036472
  0
ARC
  5
1B2
330
1F
100
AcDbEntity
  8
SONOTA
  6
Continuous
 62
   255
370
    50
100
AcDbCircle
 10
8833.295345907
 20
8906.228517685855
 30
0.0
 40
165.0
100
AcDbArc
 50
327.2403799998594
 51
0.0000000000151593
  0
ARC
  5
1B3
330
1F
100
AcDbEntity
  8
SONOTA
  6
Continuous
 62
   255
370
    50
100
AcDbCircle
 10
8576.426345907001
 20
10706.22651768565
 30
0.0
 40
2000.0
100
AcDbArc
 50
273.5887599991996
 51
275.7634099995397
  0
LINE
  5
1B4
330
1F
100
AcDbEntity
  8
SONOTA
  6
Continuous
 62
   255
370
    50
100
AcDbLine
 10
8496.297345907
 20
8733.787517685954
 30
0.0
 11
8496.297345907
 21
9015.229517685955
 31
0.0
  0
ARC
  5
1B5
330
1F
100
AcDbEntity
  8
SONOTA
  6
Continuous
 62
   255
370
    50
100
AcDbCircle
 10
8576.426345907001
 20
10706.22651768565
 30
0.0
 40
2000.0
100
AcDbArc
 50
271.1755799995796
 51
272.9928400004097
  0
LINE
  5
1B6
330
1F
100
AcDbEntity
  8
SONOTA
  6
Continuous
 62
   255
370
    50
100
AcDbLine
 10
8604.459345907
 20
8706.425517685955
 30
0.0
 11
8617.459345907
 21
8706.649517685955
 31
0.0
  0
LINE
  5
1B7
330
1F
100
AcDbEntity
  8
SONOTA
  6
Continuous
 62
   255
370
    50
100
AcDbLine
 10
8680.847345906999
 20
8708.956517685854
 30
0.0
 11
8701.615345906999
 21
8710.151517685954
 31
0.0
  0
ARC
  5
1B8
330
1F
100
AcDbEntity
  8
SONOTA
  6
Continuous
 62
   255
370
    50
100
AcDbCircle
 10
8522.2973459069
 20
8733.787517685954
 30
0.0
 40
26.0
100
AcDbArc
 50
201.2128600001786
 51
267.7238099996297
  0
ARC
  5
1B9
330
1F
100
AcDbEntity
  8
SONOTA
  6
Continuous
 62
   255
370
    50
100
AcDbCircle
 10
8522.2973459071
 20
8733.787517685654
 30
0.0
 40
26.0
100
AcDbArc
 50
179.9999999992585
 51
201.2128599992697
  0
LINE
  5
1BA
330
1F
100
AcDbEntity
  8
SONOTA
  6
Continuous
 62
   255
370
    50
100
AcDbLine
 10
8576.297345907
 20
8706.228517685855
 30
0.0
 11
8574.988345906901
 21
8706.410517685754
 31
0.0
  0
LINE
  5
1BB
330
1F
100
AcDbEntity
  8
SONOTA
  6
Continuous
 62
   255
370
    50
100
AcDbLine
 10
8585.459345907002
 20
8706.249517685954
 30
0.0
 11
8576.297345907
 21
8706.228517685855
 31
0.0
  0
LINE
  5
1BC
330
1F
100
AcDbEntity
  8
SONOTA
  6
Continuous
 62
   255
370
    50
100
AcDbLine
 10
8548.837345906901
 20
8706.901517685954
 30
0.0
 11
8569.483345907
 21
8706.474517685854
 31
0.0
  0
LINE
  5
1BD
330
1F
100
AcDbEntity
  8
SONOTA
  6
Continuous
 62
   255
370
    50
100
AcDbLine
 10
8569.483345907
 20
8706.474517685854
 30
0.0
 11
8571.4873459069
 21
8706.441517685953
 31
0.0
  0
LINE
  5
1BE
330
1F
100
AcDbEntity
  8
SONOTA
  6
Continuous
 62
   255
370
    50
100
AcDbLine
 10
8585.459345907002
 20
8706.249517685954
 30
0.0
 11
8591.458345907
 21
8706.285517685854
 31
0.0
  0
LINE
  5
1BF
330
1F
100
AcDbEntity
  8
SONOTA
  6
Continuous
 62
   255
370
    50
100
AcDbLine
 10
8521.263345907
 20
8707.806517685754
 30
0.0
 11
8548.837345906901
 21
8706.901517685954
 31
0.0
  0
LINE
  5
1C0
330
1F
100
AcDbEntity
  8
SONOTA
  6
Continuous
 62
   255
370
    50
100
AcDbLine
 10
8571.4873459069
 20
8706.441517685953
 30
0.0
 11
8574.988345906901
 21
8706.410517685754
 31
0.0
  0
LINE
  5
1C1
330
1F
100
AcDbEntity
  8
SONOTA
  6
Continuous
 62
   255
370
    50
100
AcDbLine
 10
8591.458345907
 20
8706.285517685854
 30
0.0
 11
8604.459345907
 21
8706.425517685955
 31
0.0
  0
ARC
  5
1C2
330
1F
100
AcDbEntity
  8
SONOTA
  6
Continuous
 62
   255
370
    50
100
AcDbCircle
 10
8696.9303459071
 20
9512.294517685854
 30
0.0
 40
800.0
100
AcDbArc
 50
275.7634099995296
 51
279.6127299992997
  0
ARC
  5
1C3
330
1F
100
AcDbEntity
  8
SONOTA
  6
Continuous
 62
   255
370
    50
100
AcDbCircle
 10
8795.454345906899
 20
8930.579517685854
 30
0.0
 40
209.9999900000003
100
AcDbArc
 50
279.6127099999895
 51
327.2403700000196
  0
LINE
  5
1C4
330
1F
100
AcDbEntity
  8
KIGOU
  6
Continuous
 62
   255
370
    50
100
AcDbLine
 10
8298.329398431493
 20
9460.227520698052
 30
0.0
 11
8233.472425538193
 21
9395.370547804752
 31
0.0
  0
LINE
  5
1C5
330
1F
100
AcDbEntity
  8
KIGOU
  6
Continuous
 62
   255
370
    50
100
AcDbLine
 10
8298.329398431493
 20
9455.737392637551
 30
0.0
 11
8234.172116438393
 21
9391.580110644452
 31
0.0
  0
LINE
  5
1C6
330
1F
100
AcDbEntity
  8
KIGOU
  6
Continuous
 62
   255
370
    50
100
AcDbLine
 10
8298.329398431493
 20
9451.247264576952
 30
0.0
 11
8234.957453723493
 21
9387.875319868952
 31
0.0
  0
LINE
  5
1C7
330
1F
100
AcDbEntity
  8
KIGOU
  6
Continuous
 62
   255
370
    50
100
AcDbLine
 10
8298.329398431493
 20
9446.757136516451
 30
0.0
 11
8235.824178618994
 21
9384.251916703952
 31
0.0
  0
LINE
  5
1C8
330
1F
100
AcDbEntity
  8
KIGOU
  6
Continuous
 62
   255
370
    50
100
AcDbLine
 10
8298.329398431493
 20
9442.267008455952
 30
0.0
 11
8236.768525389893
 21
9380.706135414252
 31
0.0
  0
LINE
  5
1C9
330
1F
100
AcDbEntity
  8
KIGOU
  6
Continuous
 62
   255
370
    50
100
AcDbLine
 10
8298.329398431493
 20
9437.776880395351
 30
0.0
 11
8237.787150684791
 21
9377.234632648751
 31
0.0
  0
LINE
  5
1CA
330
1F
100
AcDbEntity
  8
KIGOU
  6
Continuous
 62
   255
370
    50
100
AcDbLine
 10
8298.329398431493
 20
9433.286752334851
 30
0.0
 11
8238.877075845296
 21
9373.834429748651
 31
0.0
  0
LINE
  5
1CB
330
1F
100
AcDbEntity
  8
KIGOU
  6
Continuous
 62
   255
370
    50
100
AcDbLine
 10
8298.329398431493
 20
9428.79662427435
 30
0.0
 11
8240.035639403992
 21
9370.502865246752
 31
0.0
  0
LINE
  5
1CC
330
1F
100
AcDbEntity
  8
KIGOU
  6
Continuous
 62
   255
370
    50
100
AcDbLine
 10
8298.329398431493
 20
9424.306496213752
 30
0.0
 11
8241.260457680894
 21
9367.237555463153
 31
0.0
  0
LINE
  5
1CD
330
1F
100
AcDbEntity
  8
KIGOU
  6
Continuous
 62
   255
370
    50
100
AcDbLine
 10
8298.329398431493
 20
9419.816368153252
 30
0.0
 11
8242.549391876091
 21
9364.036361597851
 31
0.0
  0
LINE
  5
1CE
330
1F
100
AcDbEntity
  8
KIGOU
  6
Continuous
 62
   255
370
    50
100
AcDbLine
 10
8298.329398431493
 20
9415.326240092752
 30
0.0
 11
8243.900520423593
 21
9360.897362084752
 31
0.0
  0
LINE
  5
1CF
330
1F
100
AcDbEntity
  8
KIGOU
  6
Continuous
 62
   255
370
    50
100
AcDbLine
 10
8298.329398431493
 20
9410.836112032152
 30
0.0
 11
8245.312115641993
 21
9357.818829242651
 31
0.0
  0
LINE
  5
1D0
330
1F
100
AcDbEntity
  8
KIGOU
  6
Continuous
 62
   255
370
    50
100
AcDbLine
 10
8298.329398431493
 20
9406.345983971653
 30
0.0
 11
8246.782623924793
 21
9354.799209464851
 31
0.0
  0
LINE
  5
1D1
330
1F
100
AcDbEntity
  8
KIGOU
  6
Continuous
 62
   255
370
    50
100
AcDbLine
 10
8298.329398431493
 20
9401.855855911152
 30
0.0
 11
8248.310648866895
 21
9351.837106346551
 31
0.0
  0
LINE
  5
1D2
330
1F
100
AcDbEntity
  8
KIGOU
  6
Continuous
 62
   255
370
    50
100
AcDbLine
 10
8298.329398431493
 20
9397.365727850553
 30
0.0
 11
8249.894936848694
 21
9348.931266267749
 31
0.0
  0
LINE
  5
1D3
330
1F
100
AcDbEntity
  8
KIGOU
  6
Continuous
 62
   255
370
    50
100
AcDbLine
 10
8298.329398431493
 20
9541.995595850753
 30
0.0
 11
8298.329398431493
 21
9297.599735859552
 31
0.0
  0
ARC
  5
1D4
330
1F
100
AcDbEntity
  8
KIGOU
  6
Continuous
 62
   255
370
    50
100
AcDbCircle
 10
8376.418327148096
 20
9419.797665855152
 30
0.0
 40
145.0179812413007
100
AcDbArc
 50
122.5800597904097
 51
237.4199402095942
  0
ARC
  5
1D5
330
1F
100
AcDbEntity
  8
SONOTA
  6
Continuous
 62
   255
370
    50
100
AcDbCircle
 10
8576.426345907001
 20
7106.229517685853
 30
0.0
 40
2000.0
100
AcDbArc
 50
84.23657200023702
 51
89.86045800007501
  0
LINE
  5
1D6
330
1F
100
AcDbEntity
  8
KIGOU
  6
Continuous
 62
   255
370
    50
100
AcDbLine
 10
8285.830393546794
 20
9533.040948963453
 30
0.0
 11
8263.175044039692
 21
9510.385599456351
 31
0.0
  0
LINE
  5
1D7
330
1F
100
AcDbEntity
  8
KIGOU
  6
Continuous
 62
   255
370
    50
100
AcDbLine
 10
8298.329398431493
 20
9541.049825787652
 30
0.0
 11
8252.646122388893
 21
9495.366549745151
 31
0.0
  0
LINE
  5
1D8
330
1F
100
AcDbEntity
  8
KIGOU
  6
Continuous
 62
   255
370
    50
100
AcDbLine
 10
8298.329398431493
 20
9536.559697727153
 30
0.0
 11
8247.002485319694
 21
9485.232784615251
 31
0.0
  0
LINE
  5
1D9
330
1F
100
AcDbEntity
  8
KIGOU
  6
Continuous
 62
   255
370
    50
100
AcDbLine
 10
8298.329398431493
 20
9532.069569666652
 30
0.0
 11
8243.083018648993
 21
9476.823189884151
 31
0.0
  0
LINE
  5
1DA
330
1F
100
AcDbEntity
  8
KIGOU
  6
Continuous
 62
   255
370
    50
100
AcDbLine
 10
8298.329398431493
 20
9527.579441606051
 30
0.0
 11
8240.145603664492
 21
9469.395646839052
 31
0.0
  0
LINE
  5
1DB
330
1F
100
AcDbEntity
  8
KIGOU
  6
Continuous
 62
   255
370
    50
100
AcDbLine
 10
8298.329398431493
 20
9523.089313545552
 30
0.0
 11
8237.87013398389
 21
9462.630049097952
 31
0.0
  0
LINE
  5
1DC
330
1F
100
AcDbEntity
  8
KIGOU
  6
Continuous
 62
   255
370
    50
100
AcDbLine
 10
8298.329398431493
 20
9518.599185485051
 30
0.0
 11
8236.083318213194
 21
9456.353105266751
 31
0.0
  0
LINE
  5
1DD
330
1F
100
AcDbEntity
  8
KIGOU
  6
Continuous
 62
   255
370
    50
100
AcDbLine
 10
8298.329398431493
 20
9514.109057424452
 30
0.0
 11
8234.678633040692
 21
9450.458292033651
 31
0.0
  0
LINE
  5
1DE
330
1F
100
AcDbEntity
  8
KIGOU
  6
Continuous
 62
   255
370
    50
100
AcDbLine
 10
8298.329398431493
 20
9509.618929363951
 30
0.0
 11
8233.584972922792
 21
9444.874503855252
 31
0.0
  0
LINE
  5
1DF
330
1F
100
AcDbEntity
  8
KIGOU
  6
Continuous
 62
   255
370
    50
100
AcDbLine
 10
8298.329398431493
 20
9505.128801303352
 30
0.0
 11
8232.752035504993
 21
9439.551438376851
 31
0.0
  0
LINE
  5
1E0
330
1F
100
AcDbEntity
  8
KIGOU
  6
Continuous
 62
   255
370
    50
100
AcDbLine
 10
8298.329398431493
 20
9500.638673242851
 30
0.0
 11
8232.142663264693
 21
9434.451938076052
 31
0.0
  0
LINE
  5
1E1
330
1F
100
AcDbEntity
  8
KIGOU
  6
Continuous
 62
   255
370
    50
100
AcDbLine
 10
8298.329398431493
 20
9496.148545182352
 30
0.0
 11
8231.728475264094
 21
9429.547622014952
 31
0.0
  0
LINE
  5
1E2
330
1F
100
AcDbEntity
  8
KIGOU
  6
Continuous
 62
   255
370
    50
100
AcDbLine
 10
8298.329398431493
 20
9491.658417121853
 30
0.0
 11
8231.487209311694
 21
9424.816228002052
 31
0.0
  0
LINE
  5
1E3
330
1F
100
AcDbEntity
  8
KIGOU
  6
Continuous
 62
   255
370
    50
100
AcDbLine
 10
8298.329398431493
 20
9487.168289061252
 30
0.0
 11
8231.401020240694
 21
9420.239910870452
 31
0.0
  0
LINE
  5
1E4
330
1F
100
AcDbEntity
  8
KIGOU
  6
Continuous
 62
   255
370
    50
100
AcDbLine
 10
8298.329398431493
 20
9482.678161000753
 30
0.0
 11
8231.455344388192
 21
9415.804106957352
 31
0.0
  0
LINE
  5
1E5
330
1F
100
AcDbEntity
  8
KIGOU
  6
Continuous
 62
   255
370
    50
100
AcDbLine
 10
8298.329398431493
 20
9478.188032940152
 30
0.0
 11
8231.638115517793
 21
9411.496750026452
 31
0.0
  0
LINE
  5
1E6
330
1F
100
AcDbEntity
  8
KIGOU
  6
Continuous
 62
   255
370
    50
100
AcDbLine
 10
8298.329398431493
 20
9473.697904879653
 30
0.0
 11
8231.939207594296
 21
9407.307714042452
 31
0.0
  0
LINE
  5
1E7
330
1F
100
AcDbEntity
  8
KIGOU
  6
Continuous
 62
   255
370
    50
100
AcDbLine
 10
8298.329398431493
 20
9469.207776819152
 30
0.0
 11
8232.350028919493
 21
9403.228407307051
 31
0.0
  0
LINE
  5
1E8
330
1F
100
AcDbEntity
  8
KIGOU
  6
Continuous
 62
   255
370
    50
100
AcDbLine
 10
8298.329398431493
 20
9464.717648758551
 30
0.0
 11
8232.863220169593
 21
9399.251470496653
 31
0.0
  0
LINE
  5
1E9
330
1F
100
AcDbEntity
  8
SONOTA
  6
Continuous
 62
   255
370
    50
100
AcDbLine
 10
8581.298345907
 20
9106.224517685954
 30
0.0
 11
8576.297345907
 21
9106.228517685855
 31
0.0
  0
LINE
  5
1EA
330
1F
100
AcDbEntity
  8
SONOTA
  6
Continuous
 62
   255
370
    50
100
AcDbLine
 10
8521.263345907
 20
9104.651517685854
 30
0.0
 11
8576.297345907
 21
9106.228517685855
 31
0.0
  0
ARC
  5
1EB
330
1F
100
AcDbEntity
  8
SONOTA
  6
Continuous
 62
   255
370
    50
100
AcDbCircle
 10
8522.297345907
 20
9078.672517685955
 30
0.0
 40
26.0
100
AcDbArc
 50
92.2761530007445
 51
179.9999799998016
  0
ARC
  5
1EC
330
1F
100
AcDbEntity
  8
SONOTA
  6
Continuous
 62
   255
370
    50
100
AcDbCircle
 10
8696.930345907
 20
8300.162517685954
 30
0.0
 40
800.0
100
AcDbArc
 50
80.38725200043002
 51
84.23657200023604
  0
LINE
  5
1ED
330
1F
100
AcDbEntity
  8
KIGOU
  6
Continuous
 62
   255
370
    50
100
AcDbLine
 10
8298.329398431493
 20
9392.875599790052
 30
0.0
 11
8251.534364689493
 21
9346.080566048055
 31
0.0
  0
LINE
  5
1EE
330
1F
100
AcDbEntity
  8
KIGOU
  6
Continuous
 62
   255
370
    50
100
AcDbLine
 10
8298.329398431493
 20
9388.385471729553
 30
0.0
 11
8253.227929058794
 21
9343.284002356852
 31
0.0
  0
LINE
  5
1EF
330
1F
100
AcDbEntity
  8
KIGOU
  6
Continuous
 62
   255
370
    50
100
AcDbLine
 10
8298.329398431493
 20
9383.895343668952
 30
0.0
 11
8254.974737390894
 21
9340.540682628352
 31
0.0
  0
LINE
  5
1F0
330
1F
100
AcDbEntity
  8
KIGOU
  6
Continuous
 62
   255
370
    50
100
AcDbLine
 10
8298.329398431493
 20
9379.405215608453
 30
0.0
 11
8256.774000095194
 21
9337.849817272152
 31
0.0
  0
LINE
  5
1F1
330
1F
100
AcDbEntity
  8
KIGOU
  6
Continuous
 62
   255
370
    50
100
AcDbLine
 10
8298.329398431493
 20
9374.915087547952
 30
0.0
 11
8258.625023893394
 21
9335.210713009752
 31
0.0
  0
LINE
  5
1F2
330
1F
100
AcDbEntity
  8
KIGOU
  6
Continuous
 62
   255
370
    50
100
AcDbLine
 10
8298.329398431493
 20
9370.424959487351
 30
0.0
 11
8260.527206143594
 21
9332.622767199453
 31
0.0
  0
LINE
  5
1F3
330
1F
100
AcDbEntity
  8
KIGOU
  6
Continuous
 62
   255
370
    50
100
AcDbLine
 10
8298.329398431493
 20
9365.934831426852
 30
0.0
 11
8262.480030038394
 21
9330.085463033751
 31
0.0
  0
LINE
  5
1F4
330
1F
100
AcDbEntity
  8
KIGOU
  6
Continuous
 62
   255
370
    50
100
AcDbLine
 10
8298.329398431493
 20
9361.444703366251
 30
0.0
 11
8264.483060583892
 21
9327.598365518752
 31
0.0
  0
LINE
  5
1F5
330
1F
100
AcDbEntity
  8
KIGOU
  6
Continuous
 62
   255
370
    50
100
AcDbLine
 10
8298.329398431493
 20
9356.954575305752
 30
0.0
 11
8266.535941283593
 21
9325.161118157852
 31
0.0
  0
LINE
  5
1F6
330
1F
100
AcDbEntity
  8
KIGOU
  6
Continuous
 62
   255
370
    50
100
AcDbLine
 10
8298.329398431493
 20
9352.464447245251
 30
0.0
 11
8268.638391467994
 21
9322.773440281751
 31
0.0
  0
LINE
  5
1F7
330
1F
100
AcDbEntity
  8
KIGOU
  6
Continuous
 62
   255
370
    50
100
AcDbLine
 10
8298.329398431493
 20
9347.974319184652
 30
0.0
 11
8270.790204221194
 21
9320.435124974452
 31
0.0
  0
LINE
  5
1F8
330
1F
100
AcDbEntity
  8
KIGOU
  6
Continuous
 62
   255
370
    50
100
AcDbLine
 10
8298.329398431493
 20
9343.484191124149
 30
0.0
 11
8272.991244869394
 21
9318.146037562052
 31
0.0
  0
LINE
  5
1F9
330
1F
100
AcDbEntity
  8
KIGOU
  6
Continuous
 62
   255
370
    50
100
AcDbLine
 10
8298.329398431493
 20
9338.994063063652
 30
0.0
 11
8275.241450003994
 21
9315.906114636151
 31
0.0
  0
LINE
  5
1FA
330
1F
100
AcDbEntity
  8
KIGOU
  6
Continuous
 62
   255
370
    50
100
AcDbLine
 10
8298.329398431493
 20
9334.503935003051
 30
0.0
 11
8277.540827024393
 21
9313.715363595953
 31
0.0
  0
LINE
  5
1FB
330
1F
100
AcDbEntity
  8
KIGOU
  6
Continuous
 62
   255
370
    50
100
AcDbLine
 10
8298.329398431493
 20
9330.013806942552
 30
0.0
 11
8279.889454190894
 21
9311.573862701953
 31
0.0
  0
LINE
  5
1FC
330
1F
100
AcDbEntity
  8
KIGOU
  6
Continuous
 62
   255
370
    50
100
AcDbLine
 10
8298.329398431493
 20
9325.523678882053
 30
0.0
 11
8282.287481190393
 21
9309.481761640953
 31
0.0
  0
LINE
  5
1FD
330
1F
100
AcDbEntity
  8
KIGOU
  6
Continuous
 62
   255
370
    50
100
AcDbLine
 10
8298.329398431493
 20
9321.033550821452
 30
0.0
 11
8284.735130222694
 21
9307.439282612651
 31
0.0
  0
LINE
  5
1FE
330
1F
100
AcDbEntity
  8
KIGOU
  6
Continuous
 62
   255
370
    50
100
AcDbLine
 10
8298.329398431493
 20
9316.543422760953
 30
0.0
 11
8287.232697627695
 21
9305.446721957153
 31
0.0
  0
LINE
  5
1FF
330
1F
100
AcDbEntity
  8
KIGOU
  6
Continuous
 62
   255
370
    50
100
AcDbLine
 10
8298.329398431493
 20
9312.053294700452
 30
0.0
 11
8289.780556079793
 21
9303.504452348752
 31
0.0
  0
LINE
  5
200
330
1F
100
AcDbEntity
  8
KIGOU
  6
Continuous
 62
   255
370
    50
100
AcDbLine
 10
8298.329398431493
 20
9307.563166639851
 30
0.0
 11
8292.379157389692
 21
9301.612925598052
 31
0.0
  0
LINE
  5
201
330
1F
100
AcDbEntity
  8
KIGOU
  6
Continuous
 62
   255
370
    50
100
AcDbLine
 10
8298.329398431493
 20
9303.073038579352
 30
0.0
 11
8295.029035961494
 21
9299.772676109353
 31
0.0
  0
LINE
  5
202
330
1F
100
AcDbEntity
  8
KIGOU
  6
Continuous
 62
   255
370
    50
100
AcDbLine
 10
8298.329398431493
 20
9298.582910518851
 30
0.0
 11
8297.730812971393
 21
9297.984325058651
 31
0.0
  0
LINE
  5
203
330
1F
100
AcDbEntity
  8
SONOTA
  6
Continuous
 62
   255
370
    50
100
AcDbLine
 10
8931.400345907001
 20
9641.905502750955
 30
0.0
 11
8931.400345907001
 21
9601.905502751457
 31
0.0
  0
LINE
  5
204
330
1F
100
AcDbEntity
  8
SONOTA
  6
Continuous
 62
   255
370
    50
100
AcDbLine
 10
10131.4023459074
 20
9566.905502750955
 30
0.0
 11
10131.4023459074
 21
6204.405502750955
 31
0.0
  0
LINE
  5
205
330
1F
100
AcDbEntity
  8
SONOTA
  6
Continuous
 62
   255
370
    50
100
AcDbLine
 10
10131.4023459074
 20
6204.405502750955
 30
0.0
 11
13783.8983459074
 21
6204.405502750955
 31
0.0
  0
LINE
  5
206
330
1F
100
AcDbEntity
  8
KIGOU
  6
Continuous
 62
   255
370
    50
100
AcDbLine
 10
13528.4395746834
 20
6271.334555275753
 30
0.0
 11
13528.4395746834
 21
6481.447023118051
 31
0.0
  0
LINE
  5
207
330
1F
100
AcDbEntity
  8
KIGOU
  6
Continuous
 62
   255
370
    50
100
AcDbLine
 10
13648.4395746834
 20
6271.334555275753
 30
0.0
 11
13648.4395746834
 21
6481.447023118051
 31
0.0
  0
ARC
  5
208
330
1F
100
AcDbEntity
  8
KIGOU
  6
Continuous
 62
   255
370
    50
100
AcDbCircle
 10
13588.4395746834
 20
6349.423483992254
 30
0.0
 40
145.0179812412807
100
AcDbArc
 50
327.4199402102497
 51
212.5800597897399
  0
LINE
  5
209
330
1F
100
AcDbEntity
  8
SONOTA
  6
Continuous
 62
   255
370
    50
100
AcDbLine
 10
13783.8983459074
 20
6004.405502750955
 30
0.0
 11
13783.8983459074
 21
6204.405502750955
 31
0.0
  0
LINE
  5
20A
330
1F
100
AcDbEntity
  8
KIGOU
  6
Continuous
 62
   255
370
    50
100
AcDbLine
 10
13530.0492075984
 20
6271.334555275753
 30
0.0
 11
13596.7404905124
 21
6204.643272362054
 31
0.0
  0
LINE
  5
20B
330
1F
100
AcDbEntity
  8
KIGOU
  6
Continuous
 62
   255
370
    50
100
AcDbLine
 10
13534.5393356584
 20
6271.334555275753
 30
0.0
 11
13600.9295264954
 21
6204.944364438553
 31
0.0
  0
LINE
  5
20C
330
1F
100
AcDbEntity
  8
KIGOU
  6
Continuous
 62
   255
370
    50
100
AcDbLine
 10
13539.0294637194
 20
6271.334555275753
 30
0.0
 11
13605.0088332314
 21
6205.355185763753
 31
0.0
  0
LINE
  5
20D
330
1F
100
AcDbEntity
  8
KIGOU
  6
Continuous
 62
   255
370
    50
100
AcDbLine
 10
13543.5195917794
 20
6271.334555275753
 30
0.0
 11
13608.9857700414
 21
6205.868377013853
 31
0.0
  0
LINE
  5
20E
330
1F
100
AcDbEntity
  8
KIGOU
  6
Continuous
 62
   255
370
    50
100
AcDbLine
 10
13548.0097198404
 20
6271.334555275753
 30
0.0
 11
13612.8666927334
 21
6206.477582382453
 31
0.0
  0
LINE
  5
20F
330
1F
100
AcDbEntity
  8
KIGOU
  6
Continuous
 62
   255
370
    50
100
AcDbLine
 10
13552.4998479004
 20
6271.334555275753
 30
0.0
 11
13616.6571298934
 21
6207.177273282752
 31
0.0
  0
LINE
  5
210
330
1F
100
AcDbEntity
  8
KIGOU
  6
Continuous
 62
   255
370
    50
100
AcDbLine
 10
13556.9899759614
 20
6271.334555275753
 30
0.0
 11
13620.3619206694
 21
6207.962610567751
 31
0.0
  0
LINE
  5
211
330
1F
100
AcDbEntity
  8
KIGOU
  6
Continuous
 62
   255
370
    50
100
AcDbLine
 10
13561.4801040214
 20
6271.334555275753
 30
0.0
 11
13623.9853238344
 21
6208.829335463352
 31
0.0
  0
LINE
  5
212
330
1F
100
AcDbEntity
  8
KIGOU
  6
Continuous
 62
   255
370
    50
100
AcDbLine
 10
13565.9702320824
 20
6271.334555275753
 30
0.0
 11
13627.5311051244
 21
6209.773682234152
 31
0.0
  0
LINE
  5
213
330
1F
100
AcDbEntity
  8
KIGOU
  6
Continuous
 62
   255
370
    50
100
AcDbLine
 10
13570.4603601434
 20
6271.334555275753
 30
0.0
 11
13631.0026078894
 21
6210.792307529052
 31
0.0
  0
LINE
  5
214
330
1F
100
AcDbEntity
  8
KIGOU
  6
Continuous
 62
   255
370
    50
100
AcDbLine
 10
13574.9504882034
 20
6271.334555275753
 30
0.0
 11
13634.4028107894
 21
6211.882232689553
 31
0.0
  0
LINE
  5
215
330
1F
100
AcDbEntity
  8
KIGOU
  6
Continuous
 62
   255
370
    50
100
AcDbLine
 10
13579.4406162644
 20
6271.334555275753
 30
0.0
 11
13637.7343752914
 21
6213.040796248252
 31
0.0
  0
LINE
  5
216
330
1F
100
AcDbEntity
  8
KIGOU
  6
Continuous
 62
   255
370
    50
100
AcDbLine
 10
13583.9307443244
 20
6271.334555275753
 30
0.0
 11
13640.9996850754
 21
6214.265614525153
 31
0.0
  0
LINE
  5
217
330
1F
100
AcDbEntity
  8
KIGOU
  6
Continuous
 62
   255
370
    50
100
AcDbLine
 10
13588.4208723854
 20
6271.334555275753
 30
0.0
 11
13644.2008789404
 21
6215.554548720352
 31
0.0
  0
LINE
  5
218
330
1F
100
AcDbEntity
  8
KIGOU
  6
Continuous
 62
   255
370
    50
100
AcDbLine
 10
13592.9110004454
 20
6271.334555275753
 30
0.0
 11
13647.3398784534
 21
6216.905677267852
 31
0.0
  0
ARC
  5
219
330
1F
100
AcDbEntity
  8
KIGOU
  6
Continuous
 62
   255
370
    50
100
AcDbCircle
 10
13588.4395746834
 20
6349.423483992254
 30
0.0
 40
145.0179812413007
100
AcDbArc
 50
212.5800597897526
 51
327.4199402102496
  0
LINE
  5
21A
330
1F
100
AcDbEntity
  8
KIGOU
  6
Continuous
 62
   255
370
    50
100
AcDbLine
 10
13466.2416446874
 20
6271.334555275753
 30
0.0
 11
13710.6375046784
 21
6271.334555275753
 31
0.0
  0
LINE
  5
21B
330
1F
100
AcDbEntity
  8
KIGOU
  6
Continuous
 62
   255
370
    50
100
AcDbLine
 10
13597.4011285064
 20
6271.334555275753
 30
0.0
 11
13650.4184112954
 21
6218.317272486253
 31
0.0
  0
LINE
  5
21C
330
1F
100
AcDbEntity
  8
KIGOU
  6
Continuous
 62
   255
370
    50
100
AcDbLine
 10
13601.8912565664
 20
6271.334555275753
 30
0.0
 11
13653.4380310734
 21
6219.787780769052
 31
0.0
  0
LINE
  5
21D
330
1F
100
AcDbEntity
  8
KIGOU
  6
Continuous
 62
   255
370
    50
100
AcDbLine
 10
13606.3813846274
 20
6271.334555275753
 30
0.0
 11
13656.4001341914
 21
6221.315805711153
 31
0.0
  0
LINE
  5
21E
330
1F
100
AcDbEntity
  8
KIGOU
  6
Continuous
 62
   255
370
    50
100
AcDbLine
 10
13610.8715126874
 20
6271.334555275753
 30
0.0
 11
13659.3059742704
 21
6222.900093692952
 31
0.0
  0
LINE
  5
21F
330
1F
100
AcDbEntity
  8
KIGOU
  6
Continuous
 62
   255
370
    50
100
AcDbLine
 10
13615.3616407484
 20
6271.334555275753
 30
0.0
 11
13662.1566744904
 21
6224.539521533753
 31
0.0
  0
LINE
  5
220
330
1F
100
AcDbEntity
  8
KIGOU
  6
Continuous
 62
   255
370
    50
100
AcDbLine
 10
13619.8517688084
 20
6271.334555275753
 30
0.0
 11
13664.9532381814
 21
6226.233085903153
 31
0.0
  0
LINE
  5
221
330
1F
100
AcDbEntity
  8
KIGOU
  6
Continuous
 62
   255
370
    50
100
AcDbLine
 10
13624.3418968694
 20
6271.334555275753
 30
0.0
 11
13667.6965579104
 21
6227.979894235155
 31
0.0
  0
LINE
  5
222
330
1F
100
AcDbEntity
  8
KIGOU
  6
Continuous
 62
   255
370
    50
100
AcDbLine
 10
13628.8320249294
 20
6271.334555275753
 30
0.0
 11
13670.3874232664
 21
6229.779156939452
 31
0.0
  0
LINE
  5
223
330
1F
100
AcDbEntity
  8
KIGOU
  6
Continuous
 62
   255
370
    50
100
AcDbLine
 10
13633.3221529904
 20
6271.334555275753
 30
0.0
 11
13673.0265275284
 21
6231.630180737653
 31
0.0
  0
LINE
  5
224
330
1F
100
AcDbEntity
  8
KIGOU
  6
Continuous
 62
   255
370
    50
100
AcDbLine
 10
13637.8122810514
 20
6271.334555275753
 30
0.0
 11
13675.6144733394
 21
6233.532362987852
 31
0.0
  0
LINE
  5
225
330
1F
100
AcDbEntity
  8
KIGOU
  6
Continuous
 62
   255
370
    50
100
AcDbLine
 10
13642.3024091114
 20
6271.334555275753
 30
0.0
 11
13678.1517775044
 21
6235.485186882654
 31
0.0
  0
LINE
  5
226
330
1F
100
AcDbEntity
  8
KIGOU
  6
Continuous
 62
   255
370
    50
100
AcDbLine
 10
13646.7925371724
 20
6271.334555275753
 30
0.0
 11
13680.6388750194
 21
6237.488217428151
 31
0.0
  0
LINE
  5
227
330
1F
100
AcDbEntity
  8
KIGOU
  6
Continuous
 62
   255
370
    50
100
AcDbLine
 10
13651.2826652324
 20
6271.334555275753
 30
0.0
 11
13683.0761223804
 21
6239.541098127852
 31
0.0
  0
LINE
  5
228
330
1F
100
AcDbEntity
  8
KIGOU
  6
Continuous
 62
   255
370
    50
100
AcDbLine
 10
13655.7727932934
 20
6271.334555275753
 30
0.0
 11
13685.4638002564
 21
6241.643548312255
 31
0.0
  0
LINE
  5
229
330
1F
100
AcDbEntity
  8
KIGOU
  6
Continuous
 62
   255
370
    50
100
AcDbLine
 10
13660.2629213534
 20
6271.334555275753
 30
0.0
 11
13687.8021155634
 21
6243.795361065551
 31
0.0
  0
LINE
  5
22A
330
1F
100
AcDbEntity
  8
KIGOU
  6
Continuous
 62
   255
370
    50
100
AcDbLine
 10
13664.7530494144
 20
6271.334555275753
 30
0.0
 11
13690.0912029764
 21
6245.996401713654
 31
0.0
  0
LINE
  5
22B
330
1F
100
AcDbEntity
  8
KIGOU
  6
Continuous
 62
   255
370
    50
100
AcDbLine
 10
13669.2431774744
 20
6271.334555275753
 30
0.0
 11
13692.3311259024
 21
6248.246606848253
 31
0.0
  0
LINE
  5
22C
330
1F
100
AcDbEntity
  8
KIGOU
  6
Continuous
 62
   255
370
    50
100
AcDbLine
 10
13673.7333055354
 20
6271.334555275753
 30
0.0
 11
13694.5218769424
 21
6250.545983868653
 31
0.0
  0
LINE
  5
22D
330
1F
100
AcDbEntity
  8
KIGOU
  6
Continuous
 62
   255
370
    50
100
AcDbLine
 10
13678.2234335954
 20
6271.334555275753
 30
0.0
 11
13696.6633778364
 21
6252.894611035154
 31
0.0
  0
LINE
  5
22E
330
1F
100
AcDbEntity
  8
KIGOU
  6
Continuous
 62
   255
370
    50
100
AcDbLine
 10
13682.7135616564
 20
6271.334555275753
 30
0.0
 11
13698.7554788974
 21
6255.292638034653
 31
0.0
  0
LINE
  5
22F
330
1F
100
AcDbEntity
  8
KIGOU
  6
Continuous
 62
   255
370
    50
100
AcDbLine
 10
13687.2036897164
 20
6271.334555275753
 30
0.0
 11
13700.7979579254
 21
6257.74028706695
 31
0.0
  0
LINE
  5
230
330
1F
100
AcDbEntity
  8
KIGOU
  6
Continuous
 62
   255
370
    50
100
AcDbLine
 10
13691.6938177774
 20
6271.334555275753
 30
0.0
 11
13702.7905185814
 21
6260.237854471952
 31
0.0
  0
LINE
  5
231
330
1F
100
AcDbEntity
  8
KIGOU
  6
Continuous
 62
   255
370
    50
100
AcDbLine
 10
13696.1839458384
 20
6271.334555275753
 30
0.0
 11
13704.7327881894
 21
6262.785712924152
 31
0.0
  0
LINE
  5
232
330
1F
100
AcDbEntity
  8
KIGOU
  6
Continuous
 62
   255
370
    50
100
AcDbLine
 10
13700.6740738984
 20
6271.334555275753
 30
0.0
 11
13706.6243149404
 21
6265.384314233953
 31
0.0
  0
LINE
  5
233
330
1F
100
AcDbEntity
  8
KIGOU
  6
Continuous
 62
   255
370
    50
100
AcDbLine
 10
13705.1642019594
 20
6271.334555275753
 30
0.0
 11
13708.4645644294
 21
6268.034192805852
 31
0.0
  0
LINE
  5
234
330
1F
100
AcDbEntity
  8
KIGOU
  6
Continuous
 62
   255
370
    50
100
AcDbLine
 10
13709.6543300194
 20
6271.334555275753
 30
0.0
 11
13710.2529154794
 21
6270.735969815653
 31
0.0
  0
LINE
  5
235
330
1F
100
AcDbEntity
  8
KIGOU
  6
Continuous
 62
   255
370
    50
100
AcDbLine
 10
13475.1962915744
 20
6258.835550391053
 30
0.0
 11
13497.8516410824
 21
6236.180200883953
 31
0.0
  0
LINE
  5
236
330
1F
100
AcDbEntity
  8
KIGOU
  6
Continuous
 62
   255
370
    50
100
AcDbLine
 10
13467.1874147504
 20
6271.334555275753
 30
0.0
 11
13512.8706907934
 21
6225.651279233251
 31
0.0
  0
LINE
  5
237
330
1F
100
AcDbEntity
  8
KIGOU
  6
Continuous
 62
   255
370
    50
100
AcDbLine
 10
13471.6775428114
 20
6271.334555275753
 30
0.0
 11
13523.0044559234
 21
6220.007642163953
 31
0.0
  0
LINE
  5
238
330
1F
100
AcDbEntity
  8
KIGOU
  6
Continuous
 62
   255
370
    50
100
AcDbLine
 10
13476.1676708714
 20
6271.334555275753
 30
0.0
 11
13531.4140506544
 21
6216.088175493353
 31
0.0
  0
LINE
  5
239
330
1F
100
AcDbEntity
  8
KIGOU
  6
Continuous
 62
   255
370
    50
100
AcDbLine
 10
13480.6577989324
 20
6271.334555275753
 30
0.0
 11
13538.8415936994
 21
6213.150760508753
 31
0.0
  0
LINE
  5
23A
330
1F
100
AcDbEntity
  8
KIGOU
  6
Continuous
 62
   255
370
    50
100
AcDbLine
 10
13485.1479269924
 20
6271.334555275753
 30
0.0
 11
13545.6071914404
 21
6210.875290828151
 31
0.0
  0
LINE
  5
23B
330
1F
100
AcDbEntity
  8
KIGOU
  6
Continuous
 62
   255
370
    50
100
AcDbLine
 10
13489.6380550534
 20
6271.334555275753
 30
0.0
 11
13551.8841352714
 21
6209.088475057553
 31
0.0
  0
LINE
  5
23C
330
1F
100
AcDbEntity
  8
KIGOU
  6
Continuous
 62
   255
370
    50
100
AcDbLine
 10
13494.1281831134
 20
6271.334555275753
 30
0.0
 11
13557.7789485044
 21
6207.683789884953
 31
0.0
  0
LINE
  5
23D
330
1F
100
AcDbEntity
  8
KIGOU
  6
Continuous
 62
   255
370
    50
100
AcDbLine
 10
13498.6183111744
 20
6271.334555275753
 30
0.0
 11
13563.3627366834
 21
6206.590129767153
 31
0.0
  0
LINE
  5
23E
330
1F
100
AcDbEntity
  8
KIGOU
  6
Continuous
 62
   255
370
    50
100
AcDbLine
 10
13503.1084392354
 20
6271.334555275753
 30
0.0
 11
13568.6858021614
 21
6205.757192349252
 31
0.0
  0
LINE
  5
23F
330
1F
100
AcDbEntity
  8
KIGOU
  6
Continuous
 62
   255
370
    50
100
AcDbLine
 10
13507.5985672954
 20
6271.334555275753
 30
0.0
 11
13573.7853024624
 21
6205.147820108953
 31
0.0
  0
LINE
  5
240
330
1F
100
AcDbEntity
  8
KIGOU
  6
Continuous
 62
   255
370
    50
100
AcDbLine
 10
13512.0886953564
 20
6271.334555275753
 30
0.0
 11
13578.6896185234
 21
6204.733632108353
 31
0.0
  0
LINE
  5
241
330
1F
100
AcDbEntity
  8
KIGOU
  6
Continuous
 62
   255
370
    50
100
AcDbLine
 10
13516.5788234164
 20
6271.334555275753
 30
0.0
 11
13583.4210125364
 21
6204.492366155952
 31
0.0
  0
LINE
  5
242
330
1F
100
AcDbEntity
  8
KIGOU
  6
Continuous
 62
   255
370
    50
100
AcDbLine
 10
13521.0689514774
 20
6271.334555275753
 30
0.0
 11
13587.9973296674
 21
6204.406177084953
 31
0.0
  0
LINE
  5
243
330
1F
100
AcDbEntity
  8
KIGOU
  6
Continuous
 62
   255
370
    50
100
AcDbLine
 10
13525.5590795374
 20
6271.334555275753
 30
0.0
 11
13592.4331335814
 21
6204.460501232455
 31
0.0
  0
LINE
  5
244
330
1F
100
AcDbEntity
  8
SONOTA
  6
Continuous
 62
   255
370
    50
100
AcDbLine
 10
11048.9023459064
 20
9596.905502751055
 30
0.0
 11
11955.1513459064
 21
9596.905502751055
 31
0.0
  0
LINE
  5
245
330
1F
100
AcDbEntity
  8
SONOTA
  6
Continuous
 62
   255
370
    50
100
AcDbLine
 10
10786.5753459074
 20
9566.905502750955
 30
0.0
 11
10786.5753459074
 21
7329.891517685954
 31
0.0
  0
LINE
  5
246
330
1F
100
AcDbEntity
  8
SONOTA
  6
Continuous
 62
   255
370
    50
100
AcDbLine
 10
10056.4023459074
 20
8566.905502750953
 30
0.0
 11
10056.4023459074
 21
6936.905502751054
 31
0.0
  0
ARC
  5
247
330
1F
100
AcDbEntity
  8
SONOTA
  6
Continuous
 62
   255
370
    50
100
AcDbCircle
 10
10596.1753459074
 20
7951.891517685954
 30
0.0
 40
90.50000100000034
100
AcDbArc
 50
59.99968923049135
 51
119.9536926403598
  0
ARC
  5
248
330
1F
100
AcDbEntity
  8
SONOTA
  6
Continuous
 62
   255
370
    50
100
AcDbCircle
 10
10596.1753459074
 20
7951.891517685954
 30
0.0
 40
90.50000100000034
100
AcDbArc
 50
269.9999999999893
 51
300.0027350919999
  0
ARC
  5
249
330
1F
100
AcDbEntity
  8
SONOTA
  6
Continuous
 62
   255
370
    50
100
AcDbCircle
 10
10596.1753459074
 20
7621.891517685954
 30
0.0
 40
90.50000100000034
100
AcDbArc
 50
270.00000000001
 51
300.0001815104495
  0
ARC
  5
24A
330
1F
100
AcDbEntity
  8
SONOTA
  6
Continuous
 62
   255
370
    50
100
AcDbCircle
 10
10596.1753459074
 20
7621.891517685954
 30
0.0
 40
90.50000100000034
100
AcDbArc
 50
59.99968923049164
 51
120.2471414264894
  0
LINE
  5
24B
330
1F
100
AcDbEntity
  8
SONOTA
  6
Continuous
 62
   255
370
    50
100
AcDbLine
 10
10136.5753459074
 20
7329.891517685954
 30
0.0
 11
10786.5753459074
 21
7329.891517685954
 31
0.0
  0
LINE
  5
24C
330
1F
100
AcDbEntity
  8
SONOTA
  6
Continuous
 62
   255
370
    50
100
AcDbLine
 10
10744.0753459074
 20
7416.891517685954
 30
0.0
 11
10239.0753459074
 21
7416.891517685954
 31
0.0
  0
LINE
  5
24D
330
1F
100
AcDbEntity
  8
SONOTA
  6
Continuous
 62
   255
370
    50
100
AcDbLine
 10
10744.0753459074
 20
8156.891517685954
 30
0.0
 11
10239.0753459074
 21
8156.891517685954
 31
0.0
  0
LINE
  5
24E
330
1F
100
AcDbEntity
  8
SONOTA
  6
Continuous
 62
   255
370
    50
100
AcDbLine
 10
10333.0753459074
 20
7416.891517685954
 30
0.0
 11
10333.0753459074
 21
8156.891517685954
 31
0.0
  0
LINE
  5
24F
330
1F
100
AcDbEntity
  8
SONOTA
  6
Continuous
 62
   255
370
    50
100
AcDbLine
 10
10239.0753459074
 20
7416.891517685954
 30
0.0
 11
10239.0753459074
 21
8156.891517685954
 31
0.0
  0
LINE
  5
250
330
1F
100
AcDbEntity
  8
KIGOU
  6
Continuous
 62
   255
370
    50
100
AcDbLine
 10
10198.3313984324
 20
7199.789539375151
 30
0.0
 11
10131.4573443884
 21
7132.915485331751
 31
0.0
  0
LINE
  5
251
330
1F
100
AcDbEntity
  8
KIGOU
  6
Continuous
 62
   255
370
    50
100
AcDbLine
 10
10198.3313984324
 20
7195.299411314552
 30
0.0
 11
10131.6401155184
 21
7128.608128400852
 31
0.0
  0
LINE
  5
252
330
1F
100
AcDbEntity
  8
KIGOU
  6
Continuous
 62
   255
370
    50
100
AcDbLine
 10
10198.3313984324
 20
7190.809283254052
 30
0.0
 11
10131.9412075944
 21
7124.419092416852
 31
0.0
  0
LINE
  5
253
330
1F
100
AcDbEntity
  8
KIGOU
  6
Continuous
 62
   255
370
    50
100
AcDbLine
 10
10198.3313984324
 20
7186.319155193552
 30
0.0
 11
10132.3520289204
 21
7120.339785681453
 31
0.0
  0
LINE
  5
254
330
1F
100
AcDbEntity
  8
KIGOU
  6
Continuous
 62
   255
370
    50
100
AcDbLine
 10
10198.3313984324
 20
7181.829027132952
 30
0.0
 11
10132.8652201704
 21
7116.362848871052
 31
0.0
  0
LINE
  5
255
330
1F
100
AcDbEntity
  8
KIGOU
  6
Continuous
 62
   255
370
    50
100
AcDbLine
 10
10198.3313984324
 20
7177.338899072452
 30
0.0
 11
10133.4744255384
 21
7112.481926179052
 31
0.0
  0
LINE
  5
256
330
1F
100
AcDbEntity
  8
KIGOU
  6
Continuous
 62
   255
370
    50
100
AcDbLine
 10
10198.3313984324
 20
7172.848771011852
 30
0.0
 11
10134.1741164394
 21
7108.69148901885
 31
0.0
  0
LINE
  5
257
330
1F
100
AcDbEntity
  8
KIGOU
  6
Continuous
 62
   255
370
    50
100
AcDbLine
 10
10198.3313984324
 20
7168.358642951352
 30
0.0
 11
10134.9594537244
 21
7104.986698243352
 31
0.0
  0
LINE
  5
258
330
1F
100
AcDbEntity
  8
KIGOU
  6
Continuous
 62
   255
370
    50
100
AcDbLine
 10
10198.3313984324
 20
7163.868514890852
 30
0.0
 11
10135.8261786194
 21
7101.363295078352
 31
0.0
  0
LINE
  5
259
330
1F
100
AcDbEntity
  8
KIGOU
  6
Continuous
 62
   255
370
    50
100
AcDbLine
 10
10198.3313984324
 20
7159.378386830252
 30
0.0
 11
10136.7705253904
 21
7097.817513788651
 31
0.0
  0
LINE
  5
25A
330
1F
100
AcDbEntity
  8
KIGOU
  6
Continuous
 62
   255
370
    50
100
AcDbLine
 10
10198.3313984324
 20
7154.888258769753
 30
0.0
 11
10137.7891506854
 21
7094.346011023052
 31
0.0
  0
LINE
  5
25B
330
1F
100
AcDbEntity
  8
KIGOU
  6
Continuous
 62
   255
370
    50
100
AcDbLine
 10
10198.3313984324
 20
7150.398130709252
 30
0.0
 11
10138.8790758454
 21
7090.945808123051
 31
0.0
  0
LINE
  5
25C
330
1F
100
AcDbEntity
  8
KIGOU
  6
Continuous
 62
   255
370
    50
100
AcDbLine
 10
10198.3313984324
 20
7145.908002648651
 30
0.0
 11
10140.0376394044
 21
7087.614243621151
 31
0.0
  0
LINE
  5
25D
330
1F
100
AcDbEntity
  8
KIGOU
  6
Continuous
 62
   255
370
    50
100
AcDbLine
 10
10198.3313984324
 20
7141.417874588152
 30
0.0
 11
10141.2624576814
 21
7084.348933837551
 31
0.0
  0
LINE
  5
25E
330
1F
100
AcDbEntity
  8
KIGOU
  6
Continuous
 62
   255
370
    50
100
AcDbLine
 10
10198.3313984324
 20
7136.927746527651
 30
0.0
 11
10142.5513918764
 21
7081.147739972253
 31
0.0
  0
ARC
  5
25F
330
1F
100
AcDbEntity
  8
KIGOU
  6
Continuous
 62
   255
370
    50
100
AcDbCircle
 10
10276.4203271484
 20
7136.909044229553
 30
0.0
 40
145.0179812412807
100
AcDbArc
 50
237.4199402095917
 51
122.5800597904103
  0
ARC
  5
260
330
1F
100
AcDbEntity
  8
KIGOU
  6
Continuous
 62
   255
370
    50
100
AcDbCircle
 10
10276.4203271484
 20
7136.909044229553
 30
0.0
 40
145.0179812413007
100
AcDbArc
 50
122.5800597904099
 51
237.4199402095926
  0
LINE
  5
261
330
1F
100
AcDbEntity
  8
KIGOU
  6
Continuous
 62
   255
370
    50
100
AcDbLine
 10
10198.3313984324
 20
7259.10697422515
 30
0.0
 11
10198.3313984324
 21
7014.711114233952
 31
0.0
  0
LINE
  5
262
330
1F
100
AcDbEntity
  8
KIGOU
  6
Continuous
 62
   255
370
    50
100
AcDbLine
 10
10198.3313984324
 20
7196.909044229551
 30
0.0
 11
10408.4438662744
 21
7196.909044229551
 31
0.0
  0
LINE
  5
263
330
1F
100
AcDbEntity
  8
KIGOU
  6
Continuous
 62
   255
370
    50
100
AcDbLine
 10
10185.8323935474
 20
7250.152327337852
 30
0.0
 11
10163.1770440404
 21
7227.496977830753
 31
0.0
  0
LINE
  5
264
330
1F
100
AcDbEntity
  8
KIGOU
  6
Continuous
 62
   255
370
    50
100
AcDbLine
 10
10198.3313984324
 20
7258.161204162052
 30
0.0
 11
10152.6481223894
 21
7212.477928119451
 31
0.0
  0
LINE
  5
265
330
1F
100
AcDbEntity
  8
KIGOU
  6
Continuous
 62
   255
370
    50
100
AcDbLine
 10
10198.3313984324
 20
7253.671076101551
 30
0.0
 11
10147.0044853204
 21
7202.344162989652
 31
0.0
  0
LINE
  5
266
330
1F
100
AcDbEntity
  8
KIGOU
  6
Continuous
 62
   255
370
    50
100
AcDbLine
 10
10198.3313984324
 20
7249.180948040952
 30
0.0
 11
10143.0850186494
 21
7193.934568258554
 31
0.0
  0
LINE
  5
267
330
1F
100
AcDbEntity
  8
KIGOU
  6
Continuous
 62
   255
370
    50
100
AcDbLine
 10
10198.3313984324
 20
7244.690819980452
 30
0.0
 11
10140.1476036654
 21
7186.507025213452
 31
0.0
  0
LINE
  5
268
330
1F
100
AcDbEntity
  8
KIGOU
  6
Continuous
 62
   255
370
    50
100
AcDbLine
 10
10198.3313984324
 20
7240.200691919951
 30
0.0
 11
10137.8721339844
 21
7179.741427472352
 31
0.0
  0
LINE
  5
269
330
1F
100
AcDbEntity
  8
KIGOU
  6
Continuous
 62
   255
370
    50
100
AcDbLine
 10
10198.3313984324
 20
7235.710563859353
 30
0.0
 11
10136.0853182134
 21
7173.464483641151
 31
0.0
  0
LINE
  5
26A
330
1F
100
AcDbEntity
  8
KIGOU
  6
Continuous
 62
   255
370
    50
100
AcDbLine
 10
10198.3313984324
 20
7231.220435798851
 30
0.0
 11
10134.6806330414
 21
7167.569670408053
 31
0.0
  0
LINE
  5
26B
330
1F
100
AcDbEntity
  8
KIGOU
  6
Continuous
 62
   255
370
    50
100
AcDbLine
 10
10198.3313984324
 20
7226.730307738352
 30
0.0
 11
10133.5869729234
 21
7161.985882229652
 31
0.0
  0
LINE
  5
26C
330
1F
100
AcDbEntity
  8
KIGOU
  6
Continuous
 62
   255
370
    50
100
AcDbLine
 10
10198.3313984324
 20
7222.24017967775
 30
0.0
 11
10132.7540355054
 21
7156.662816751251
 31
0.0
  0
LINE
  5
26D
330
1F
100
AcDbEntity
  8
KIGOU
  6
Continuous
 62
   255
370
    50
100
AcDbLine
 10
10198.3313984324
 20
7217.750051617252
 30
0.0
 11
10132.1446632654
 21
7151.563316450451
 31
0.0
  0
LINE
  5
26E
330
1F
100
AcDbEntity
  8
KIGOU
  6
Continuous
 62
   255
370
    50
100
AcDbLine
 10
10198.3313984324
 20
7213.259923556751
 30
0.0
 11
10131.7304752644
 21
7146.659000389352
 31
0.0
  0
LINE
  5
26F
330
1F
100
AcDbEntity
  8
KIGOU
  6
Continuous
 62
   255
370
    50
100
AcDbLine
 10
10198.3313984324
 20
7208.769795496151
 30
0.0
 11
10131.4892093124
 21
7141.92760637635
 31
0.0
  0
LINE
  5
270
330
1F
100
AcDbEntity
  8
KIGOU
  6
Continuous
 62
   255
370
    50
100
AcDbLine
 10
10198.3313984324
 20
7204.279667435653
 30
0.0
 11
10131.4030202414
 21
7137.351289244851
 31
0.0
  0
LINE
  5
271
330
1F
100
AcDbEntity
  8
KIGOU
  6
Continuous
 62
   255
370
    50
100
AcDbLine
 10
10198.3313984324
 20
7076.909044229553
 30
0.0
 11
10408.4438662744
 21
7076.909044229553
 31
0.0
  0
LINE
  5
272
330
1F
100
AcDbEntity
  8
KIGOU
  6
Continuous
 62
   255
370
    50
100
AcDbLine
 10
10198.3313984324
 20
7132.437618467052
 30
0.0
 11
10143.9025204244
 21
7078.008740459151
 31
0.0
  0
LINE
  5
273
330
1F
100
AcDbEntity
  8
KIGOU
  6
Continuous
 62
   255
370
    50
100
AcDbLine
 10
10198.3313984324
 20
7127.947490406552
 30
0.0
 11
10145.3141156424
 21
7074.930207617052
 31
0.0
  0
LINE
  5
274
330
1F
100
AcDbEntity
  8
KIGOU
  6
Continuous
 62
   255
370
    50
100
AcDbLine
 10
10198.3313984324
 20
7123.457362346052
 30
0.0
 11
10146.7846239254
 21
7071.910587839252
 31
0.0
  0
LINE
  5
275
330
1F
100
AcDbEntity
  8
KIGOU
  6
Continuous
 62
   255
370
    50
100
AcDbLine
 10
10198.3313984324
 20
7118.967234285453
 30
0.0
 11
10148.3126488674
 21
7068.948484720852
 31
0.0
  0
LINE
  5
276
330
1F
100
AcDbEntity
  8
KIGOU
  6
Continuous
 62
   255
370
    50
100
AcDbLine
 10
10198.3313984324
 20
7114.477106224951
 30
0.0
 11
10149.8969368494
 21
7066.042644642153
 31
0.0
  0
LINE
  5
277
330
1F
100
AcDbEntity
  8
KIGOU
  6
Continuous
 62
   255
370
    50
100
AcDbLine
 10
10198.3313984324
 20
7109.986978164452
 30
0.0
 11
10151.5363646904
 21
7063.191944422451
 31
0.0
  0
LINE
  5
278
330
1F
100
AcDbEntity
  8
KIGOU
  6
Continuous
 62
   255
370
    50
100
AcDbLine
 10
10198.3313984324
 20
7105.49685010385
 30
0.0
 11
10153.2299290594
 21
7060.395380731251
 31
0.0
  0
LINE
  5
279
330
1F
100
AcDbEntity
  8
KIGOU
  6
Continuous
 62
   255
370
    50
100
AcDbLine
 10
10198.3313984324
 20
7101.006722043352
 30
0.0
 11
10154.9767373914
 21
7057.652061002752
 31
0.0
  0
LINE
  5
27A
330
1F
100
AcDbEntity
  8
KIGOU
  6
Continuous
 62
   255
370
    50
100
AcDbLine
 10
10198.3313984324
 20
7096.516593982851
 30
0.0
 11
10156.7760000954
 21
7054.961195646552
 31
0.0
  0
LINE
  5
27B
330
1F
100
AcDbEntity
  8
KIGOU
  6
Continuous
 62
   255
370
    50
100
AcDbLine
 10
10198.3313984324
 20
7092.026465922252
 30
0.0
 11
10158.6270238934
 21
7052.322091384152
 31
0.0
  0
LINE
  5
27C
330
1F
100
AcDbEntity
  8
KIGOU
  6
Continuous
 62
   255
370
    50
100
AcDbLine
 10
10198.3313984324
 20
7087.536337861753
 30
0.0
 11
10160.5292061444
 21
7049.734145573852
 31
0.0
  0
LINE
  5
27D
330
1F
100
AcDbEntity
  8
KIGOU
  6
Continuous
 62
   255
370
    50
100
AcDbLine
 10
10198.3313984324
 20
7083.046209801251
 30
0.0
 11
10162.4820300394
 21
7047.196841408152
 31
0.0
  0
LINE
  5
27E
330
1F
100
AcDbEntity
  8
KIGOU
  6
Continuous
 62
   255
370
    50
100
AcDbLine
 10
10198.3313984324
 20
7078.556081740652
 30
0.0
 11
10164.4850605844
 21
7044.709743893051
 31
0.0
  0
LINE
  5
27F
330
1F
100
AcDbEntity
  8
KIGOU
  6
Continuous
 62
   255
370
    50
100
AcDbLine
 10
10198.3313984324
 20
7074.065953680152
 30
0.0
 11
10166.5379412844
 21
7042.272496532252
 31
0.0
  0
LINE
  5
280
330
1F
100
AcDbEntity
  8
KIGOU
  6
Continuous
 62
   255
370
    50
100
AcDbLine
 10
10198.3313984324
 20
7069.575825619553
 30
0.0
 11
10168.6403914684
 21
7039.884818656151
 31
0.0
  0
LINE
  5
281
330
1F
100
AcDbEntity
  8
KIGOU
  6
Continuous
 62
   255
370
    50
100
AcDbLine
 10
10198.3313984324
 20
7065.085697559051
 30
0.0
 11
10170.7922042214
 21
7037.54650334885
 31
0.0
  0
LINE
  5
282
330
1F
100
AcDbEntity
  8
KIGOU
  6
Continuous
 62
   255
370
    50
100
AcDbLine
 10
10198.3313984324
 20
7060.595569498552
 30
0.0
 11
10172.9932448704
 21
7035.25741593645
 31
0.0
  0
LINE
  5
283
330
1F
100
AcDbEntity
  8
KIGOU
  6
Continuous
 62
   255
370
    50
100
AcDbLine
 10
10198.3313984324
 20
7056.105441438051
 30
0.0
 11
10175.2434500044
 21
7033.017493010551
 31
0.0
  0
LINE
  5
284
330
1F
100
AcDbEntity
  8
KIGOU
  6
Continuous
 62
   255
370
    50
100
AcDbLine
 10
10198.3313984324
 20
7051.615313377452
 30
0.0
 11
10177.5428270254
 21
7030.826741970352
 31
0.0
  0
LINE
  5
285
330
1F
100
AcDbEntity
  8
KIGOU
  6
Continuous
 62
   255
370
    50
100
AcDbLine
 10
10198.3313984324
 20
7047.125185316951
 30
0.0
 11
10179.8914541914
 21
7028.685241076351
 31
0.0
  0
LINE
  5
286
330
1F
100
AcDbEntity
  8
KIGOU
  6
Continuous
 62
   255
370
    50
100
AcDbLine
 10
10198.3313984324
 20
7042.63505725635
 30
0.0
 11
10182.2894811914
 21
7026.593140015251
 31
0.0
  0
LINE
  5
287
330
1F
100
AcDbEntity
  8
KIGOU
  6
Continuous
 62
   255
370
    50
100
AcDbLine
 10
10198.3313984324
 20
7038.144929195853
 30
0.0
 11
10184.7371302234
 21
7024.550660987052
 31
0.0
  0
LINE
  5
288
330
1F
100
AcDbEntity
  8
KIGOU
  6
Continuous
 62
   255
370
    50
100
AcDbLine
 10
10198.3313984324
 20
7033.654801135352
 30
0.0
 11
10187.2346976284
 21
7022.558100331552
 31
0.0
  0
LINE
  5
289
330
1F
100
AcDbEntity
  8
KIGOU
  6
Continuous
 62
   255
370
    50
100
AcDbLine
 10
10198.3313984324
 20
7029.164673074753
 30
0.0
 11
10189.7825560804
 21
7020.615830723154
 31
0.0
  0
LINE
  5
28A
330
1F
100
AcDbEntity
  8
KIGOU
  6
Continuous
 62
   255
370
    50
100
AcDbLine
 10
10198.3313984324
 20
7024.674545014252
 30
0.0
 11
10192.3811573904
 21
7018.724303972451
 31
0.0
  0
LINE
  5
28B
330
1F
100
AcDbEntity
  8
KIGOU
  6
Continuous
 62
   255
370
    50
100
AcDbLine
 10
10198.3313984324
 20
7020.184416953751
 30
0.0
 11
10195.0310359624
 21
7016.884054483751
 31
0.0
  0
LINE
  5
28C
330
1F
100
AcDbEntity
  8
KIGOU
  6
Continuous
 62
   255
370
    50
100
AcDbLine
 10
10198.3313984324
 20
7015.694288893152
 30
0.0
 11
10197.7328129714
 21
7015.09570343305
 31
0.0
  0
ARC
  5
28D
330
1F
100
AcDbEntity
  8
SONOTA
  6
Continuous
 62
   255
370
    50
100
AcDbCircle
 10
10596.1753459074
 20
7951.891517685954
 30
0.0
 40
90.50000100000034
100
AcDbArc
 50
180.9180380011998
 51
239.5874012153295
  0
ARC
  5
28E
330
1F
100
AcDbEntity
  8
SONOTA
  6
Continuous
 62
   255
370
    50
100
AcDbCircle
 10
10596.1753459074
 20
7951.891517685954
 30
0.0
 40
90.50000100000034
100
AcDbArc
 50
239.5874012153295
 51
270.00000000001
  0
ARC
  5
28F
330
1F
100
AcDbEntity
  8
SONOTA
  6
Continuous
 62
   255
370
    50
100
AcDbCircle
 10
10436.1753459074
 20
7786.891517685955
 30
0.0
 40
65.00000100000034
100
AcDbArc
 50
59.99677909494172
 51
120.0295091690602
  0
LINE
  5
290
330
1F
100
AcDbEntity
  8
SONOTA
  6
Continuous
 62
   255
370
    50
100
AcDbLine
 10
10454.9258459074
 20
7819.367517685953
 30
0.0
 11
10478.9306552824
 21
7860.933740235055
 31
0.0
  0
ARC
  5
291
330
1F
100
AcDbEntity
  8
SONOTA
  6
Continuous
 62
   255
370
    50
100
AcDbCircle
 10
10596.1753459074
 20
7621.891517685954
 30
0.0
 40
90.50000100000034
100
AcDbArc
 50
240.1804407409896
 51
269.9999999999998
  0
ARC
  5
292
330
1F
100
AcDbEntity
  8
SONOTA
  6
Continuous
 62
   255
370
    50
100
AcDbCircle
 10
10436.1753459074
 20
7786.891517685955
 30
0.0
 40
65.00000100000034
100
AcDbArc
 50
300.0004162117893
 51
0.0000000000056119
  0
LINE
  5
293
330
1F
100
AcDbEntity
  8
SONOTA
  6
Continuous
 62
   255
370
    50
100
AcDbLine
 10
10454.9258459074
 20
7754.415517685955
 30
0.0
 11
10478.9258459074
 21
7712.846517685955
 31
0.0
  0
ARC
  5
294
330
1F
100
AcDbEntity
  8
SONOTA
  6
Continuous
 62
   255
370
    50
100
AcDbCircle
 10
10436.1753459074
 20
7786.891517685955
 30
0.0
 40
65.00000100000034
100
AcDbArc
 50
239.6962907197098
 51
270.0000000000093
  0
ARC
  5
295
330
1F
100
AcDbEntity
  8
SONOTA
  6
Continuous
 62
   255
370
    50
100
AcDbCircle
 10
10436.1753459074
 20
7786.891517685955
 30
0.0
 40
65.00000100000034
100
AcDbArc
 50
269.9999999999901
 51
300.00041621178
  0
ARC
  5
296
330
1F
100
AcDbEntity
  8
SONOTA
  6
Continuous
 62
   255
370
    50
100
AcDbCircle
 10
10596.1753459074
 20
7621.891517685954
 30
0.0
 40
90.50000100000034
100
AcDbArc
 50
179.9999999999998
 51
240.1804407409794
  0
ARC
  5
297
330
1F
100
AcDbEntity
  8
SONOTA
  6
Continuous
 62
   255
370
    50
100
AcDbCircle
 10
10596.1753459074
 20
7621.891517685954
 30
0.0
 40
90.50000100000034
100
AcDbArc
 50
120.2471414265
 51
179.9999999999902
  0
LINE
  5
298
330
1F
100
AcDbEntity
  8
SONOTA
  6
Continuous
 62
   255
370
    50
100
AcDbLine
 10
10541.1753459074
 20
7621.891517685954
 30
0.0
 11
10481.1753459074
 21
7621.891517685954
 31
0.0
  0
ARC
  5
299
330
1F
100
AcDbEntity
  8
SONOTA
  6
Continuous
 62
   255
370
    50
100
AcDbCircle
 10
10436.1753459074
 20
7786.891517685955
 30
0.0
 40
65.00000100000034
100
AcDbArc
 50
0.000000000008017
 51
59.99677909496798
  0
ARC
  5
29A
330
1F
100
AcDbEntity
  8
SONOTA
  6
Continuous
 62
   255
370
    50
100
AcDbCircle
 10
10436.1753459074
 20
7786.891517685955
 30
0.0
 40
65.00000100000034
100
AcDbArc
 50
179.9999999999998
 51
239.6962907197098
  0
LINE
  5
29B
330
1F
100
AcDbEntity
  8
SONOTA
  6
Continuous
 62
   255
370
    50
100
AcDbLine
 10
10398.6753459074
 20
7786.891517685955
 30
0.0
 11
10350.6753459074
 21
7786.891517685955
 31
0.0
  0
ARC
  5
29C
330
1F
100
AcDbEntity
  8
SONOTA
  6
Continuous
 62
   255
370
    50
100
AcDbCircle
 10
10436.1753459074
 20
7786.891517685955
 30
0.0
 40
65.00000100000034
100
AcDbArc
 50
120.0295091690901
 51
180.0000000000197
  0
ARC
  5
29D
330
1F
100
AcDbEntity
  8
SONOTA
  6
Continuous
 62
   255
370
    50
100
AcDbCircle
 10
10596.1753459074
 20
7951.891517685954
 30
0.0
 40
90.50000100000034
100
AcDbArc
 50
119.9536926403701
 51
179.0819619988102
  0
LINE
  5
29E
330
1F
100
AcDbEntity
  8
SONOTA
  6
Continuous
 62
   255
370
    50
100
AcDbLine
 10
10541.1753459074
 20
7951.891517685954
 30
0.0
 11
10481.1753459074
 21
7951.891517685954
 31
0.0
  0
LINE
  5
29F
330
1F
100
AcDbEntity
  8
SONOTA
  6
Continuous
 62
   255
370
    50
100
AcDbLine
 10
10623.6758459074
 20
7574.259517685956
 30
0.0
 11
10653.6817493574
 21
7522.301926973656
 31
0.0
  0
LINE
  5
2A0
330
1F
100
AcDbEntity
  8
SONOTA
  6
Continuous
 62
   255
370
    50
100
AcDbLine
 10
10744.0753459074
 20
8156.891517685954
 30
0.0
 11
10744.0753459074
 21
7416.891517685954
 31
0.0
  0
ARC
  5
2A1
330
1F
100
AcDbEntity
  8
SONOTA
  6
Continuous
 62
   255
370
    50
100
AcDbCircle
 10
10596.1753459074
 20
7951.891517685954
 30
0.0
 40
90.50000100000034
100
AcDbArc
 50
300.0027350920198
 51
0.000000000005758
  0
LINE
  5
2A2
330
1F
100
AcDbEntity
  8
SONOTA
  6
Continuous
 62
   255
370
    50
100
AcDbLine
 10
10623.6758459074
 20
7904.259517685955
 30
0.0
 11
10653.6817493574
 21
7852.301926973656
 31
0.0
  0
LINE
  5
2A3
330
1F
100
AcDbEntity
  8
SONOTA
  6
Continuous
 62
   255
370
    50
100
AcDbLine
 10
10653.6758459074
 20
7721.484517685954
 30
0.0
 11
10623.6758459074
 21
7669.522517685955
 31
0.0
  0
ARC
  5
2A4
330
1F
100
AcDbEntity
  8
SONOTA
  6
Continuous
 62
   255
370
    50
100
AcDbCircle
 10
10596.1753459074
 20
7621.891517685954
 30
0.0
 40
90.50000100000034
100
AcDbArc
 50
0.0000000000005758
 51
59.99968923049678
  0
ARC
  5
2A5
330
1F
100
AcDbEntity
  8
SONOTA
  6
Continuous
 62
   255
370
    50
100
AcDbCircle
 10
10596.1753459074
 20
7621.891517685954
 30
0.0
 40
90.50000100000034
100
AcDbArc
 50
300.0001815104401
 51
0.0000000000120919
  0
ARC
  5
2A6
330
1F
100
AcDbEntity
  8
SONOTA
  6
Continuous
 62
   255
370
    50
100
AcDbCircle
 10
10596.1753459074
 20
7951.891517685954
 30
0.0
 40
90.50000100000034
100
AcDbArc
 50
0.0000000000063338
 51
59.99968923050894
  0
LINE
  5
2A7
330
1F
100
AcDbEntity
  8
SONOTA
  6
Continuous
 62
   255
370
    50
100
AcDbLine
 10
10653.6758459074
 20
8051.484517685954
 30
0.0
 11
10623.6758459074
 21
7999.522517685955
 31
0.0
  0
LINE
  5
2A8
330
1F
100
AcDbEntity
  8
KIGOU
  6
Continuous
 62
   255
370
    50
100
AcDbLine
 10
10380.7713054003
 20
9087.070546491954
 30
0.0
 11
10380.7713054003
 21
9449.678477177953
 31
0.0
  0
LINE
  5
2A9
330
1F
100
AcDbEntity
  8
KIGOU
  6
Continuous
 62
   255
370
    50
100
AcDbLine
 10
10222.3793864145
 20
9087.070546491954
 30
0.0
 11
10222.3793864145
 21
9449.678477177953
 31
0.0
  0
LINE
  5
2AA
330
1F
100
AcDbEntity
  8
SONOTA
  6
Continuous
 62
   255
370
    50
100
AcDbLine
 10
11048.9023459064
 20
9641.905502750955
 30
0.0
 11
10131.4023459074
 21
9641.905502750955
 31
0.0
  0
LINE
  5
2AB
330
1F
100
AcDbEntity
  8
SONOTA
  6
Continuous
 62
   255
370
    50
100
AcDbLine
 10
11048.9023459064
 20
9566.905502750955
 30
0.0
 11
10131.4023459074
 21
9566.905502750955
 31
0.0
  0
ARC
  5
2AC
330
1F
100
AcDbEntity
  8
SONOTA
  6
Continuous
 62
   255
370
    50
100
AcDbCircle
 10
10516.5753459074
 20
7854.891517685954
 30
0.0
 40
1500.0
100
AcDbArc
 50
84.13899999981003
 51
97.63599999975699
  0
ARC
  5
2AD
330
1F
100
AcDbEntity
  8
SONOTA
  6
Continuous
 62
   255
370
    50
100
AcDbCircle
 10
10516.5753459074
 20
10054.89151768565
 30
0.0
 40
1500.0
100
AcDbArc
 50
262.3640000002396
 51
275.8610000001896
  0
LINE
  5
2AE
330
1F
100
AcDbEntity
  8
SONOTA
  6
Continuous
 62
   255
370
    50
100
AcDbLine
 10
10131.4023459074
 20
9687.461017685855
 30
0.0
 11
10881.4023459074
 21
9687.461017685855
 31
0.0
  0
LINE
  5
2AF
330
1F
100
AcDbEntity
  8
SONOTA
  6
Continuous
 62
   255
370
    50
100
AcDbLine
 10
9633.900345906899
 20
8641.905502750955
 30
0.0
 11
9633.900345906899
 21
9129.404502751055
 31
0.0
  0
LINE
  5
2B0
330
1F
100
AcDbEntity
  8
SONOTA
  6
Continuous
 62
   255
370
    50
100
AcDbLine
 10
10056.4023459074
 20
9566.905502750955
 30
0.0
 11
10056.4023459074
 21
8641.905502750955
 31
0.0
  0
CIRCLE
  5
2B1
330
1F
100
AcDbEntity
  8
KIGOU
  6
Continuous
 62
   255
370
    50
100
AcDbCircle
 10
10301.5753459074
 20
8978.482517685956
 30
0.0
 40
134.3999999999996
  0
LINE
  5
2B2
330
1F
100
AcDbEntity
  8
KIGOU
  6
Continuous
 62
   255
370
    50
100
AcDbLine
 10
10380.7713054003
 20
8869.894488878954
 30
0.0
 11
10380.7713054003
 21
8507.286558192654
 31
0.0
  0
LINE
  5
2B3
330
1F
100
AcDbEntity
  8
KIGOU
  6
Continuous
 62
   255
370
    50
100
AcDbLine
 10
10222.3793864145
 20
8869.894488878954
 30
0.0
 11
10222.3793864145
 21
8507.286558192654
 31
0.0
  0
LINE
  5
2B4
330
1F
100
AcDbEntity
  8
KIGOU
  6
Continuous
 62
   255
370
    50
100
AcDbLine
 10
10222.3793864145
 20
8507.286558192654
 30
0.0
 11
10380.7713054003
 21
8507.286558192654
 31
0.0
  0
ARC
  5
2B5
330
1F
100
AcDbEntity
  8
SONOTA
  6
Continuous
 62
   255
370
    50
100
AcDbCircle
 10
10466.5753459074
 20
8686.811517686056
 30
0.0
 40
265.0
100
AcDbArc
 50
180.0000000000197
 51
188.4329999997395
  0
ARC
  5
2B6
330
1F
100
AcDbEntity
  8
SONOTA
  6
Continuous
 62
   255
370
    50
100
AcDbCircle
 10
10283.5753459074
 20
8659.691517685955
 30
0.0
 40
80.0
100
AcDbArc
 50
188.4329999997398
 51
246.8279999997501
  0
ARC
  5
2B7
330
1F
100
AcDbEntity
  8
SONOTA
  6
Continuous
 62
   255
370
    50
100
AcDbCircle
 10
10350.4753459074
 20
8815.971517685955
 30
0.0
 40
250.0
100
AcDbArc
 50
246.8279999997198
 51
262.3640000002497
  0
LINE
  5
2B8
330
1F
100
AcDbEntity
  8
SONOTA
  6
Continuous
 62
   255
370
    50
100
AcDbLine
 10
10056.4023459074
 20
9687.461017685855
 30
0.0
 11
10131.4023459074
 21
9687.461017685855
 31
0.0
  0
LINE
  5
2B9
330
1F
100
AcDbEntity
  8
SONOTA
  6
Continuous
 62
   255
370
    50
100
AcDbLine
 10
9648.900345906899
 20
9566.903786960356
 30
0.0
 11
9648.900345906899
 21
9079.404502751055
 31
0.0
  0
LINE
  5
2BA
330
1F
100
AcDbEntity
  8
SONOTA
  6
Continuous
 62
   255
370
    50
100
AcDbLine
 10
9616.400345906899
 20
9104.404502751055
 30
0.0
 11
9666.400345906899
 21
9104.404502751055
 31
0.0
  0
LINE
  5
2BB
330
1F
100
AcDbEntity
  8
SONOTA
  6
Continuous
 62
   255
370
    50
100
AcDbLine
 10
10056.4023459074
 20
9641.905502750955
 30
0.0
 11
9581.400345907001
 21
9641.905502750955
 31
0.0
  0
LINE
  5
2BC
330
1F
100
AcDbEntity
  8
SONOTA
  6
Continuous
 62
   255
370
    50
100
AcDbLine
 10
9581.400345907001
 20
9566.903502751055
 30
0.0
 11
10056.4023459074
 21
9566.905502750955
 31
0.0
  0
LINE
  5
2BD
330
1F
100
AcDbEntity
  8
SONOTA
  6
Continuous
 62
   255
370
    50
100
AcDbLine
 10
9581.400345907001
 20
9566.903502751055
 30
0.0
 11
9581.400345907001
 21
9641.905502750955
 31
0.0
  0
LINE
  5
2BE
330
1F
100
AcDbEntity
  8
SONOTA
  6
Continuous
 62
   255
370
    50
100
AcDbLine
 10
10056.4023459074
 20
9641.905502750955
 30
0.0
 11
10056.4023459074
 21
9687.461017685855
 31
0.0
  0
ARC
  5
2BF
330
1F
100
AcDbEntity
  8
SONOTA
  6
Continuous
 62
   255
370
    50
100
AcDbCircle
 10
10287.0121252524
 20
9245.656174850554
 30
0.0
 40
85.44158660909125
100
AcDbArc
 50
114.1204181354797
 51
179.3922094004597
  0
ARC
  5
2C0
330
1F
100
AcDbEntity
  8
SONOTA
  6
Continuous
 62
   255
370
    50
100
AcDbCircle
 10
10350.4753459074
 20
9093.811517685956
 30
0.0
 40
250.0
100
AcDbArc
 50
97.63599999976
 51
113.1720000002799
  0
LINE
  5
2C1
330
1F
100
AcDbEntity
  8
SONOTA
  6
Continuous
 62
   255
370
    50
100
AcDbLine
 10
10131.4023459074
 20
9641.905502750955
 30
0.0
 11
10131.4023459074
 21
9687.461017685855
 31
0.0
  0
LINE
  5
2C2
330
1F
100
AcDbEntity
  8
SONOTA
  6
Continuous
 62
   255
370
    50
100
AcDbLine
 10
10741.5753459074
 20
9267.471517685955
 30
0.0
 11
10741.5753459074
 21
8642.311517685956
 31
0.0
  0
ARC
  5
2C3
330
1F
100
AcDbEntity
  8
SONOTA
  6
Continuous
 62
   255
370
    50
100
AcDbCircle
 10
10661.5753459074
 20
8642.311517685956
 30
0.0
 40
80.0
100
AcDbArc
 50
275.8610000001896
 51
0.0
  0
LINE
  5
2C4
330
1F
100
AcDbEntity
  8
KIGOU
  6
Continuous
 62
   255
370
    50
100
AcDbLine
 10
10222.3793864145
 20
9449.678477177953
 30
0.0
 11
10380.7713054003
 21
9449.678477177953
 31
0.0
  0
ARC
  5
2C5
330
1F
100
AcDbEntity
  8
SONOTA
  6
Continuous
 62
   255
370
    50
100
AcDbCircle
 10
10661.5753459074
 20
9267.471517685955
 30
0.0
 40
80.0
100
AcDbArc
 50
0.0000000000013028
 51
84.13899999982318
  0
LINE
  5
2C6
330
1F
100
AcDbEntity
  8
SONOTA
  6
Continuous
 62
   255
370
    50
100
AcDbLine
 10
11048.9023459064
 20
9566.905502750955
 30
0.0
 11
11048.9023459064
 21
9641.905502750955
 31
0.0
  0
LINE
  5
2C7
330
1F
100
AcDbEntity
  8
KIGOU
  6
Continuous
 62
   255
370
    50
100
AcDbLine
 10
12586.6488171012
 20
7964.851462242954
 30
0.0
 11
12224.0408864145
 21
7964.851462242954
 31
0.0
  0
LINE
  5
2C8
330
1F
100
AcDbEntity
  8
KIGOU
  6
Continuous
 62
   255
370
    50
100
AcDbLine
 10
12586.6488171012
 20
7806.459543257954
 30
0.0
 11
12224.0408864145
 21
7806.459543257954
 31
0.0
  0
LINE
  5
2C9
330
1F
100
AcDbEntity
  8
KIGOU
  6
Continuous
 62
   255
370
    50
100
AcDbLine
 10
13166.4328054002
 20
7964.851462242954
 30
0.0
 11
13166.4328054002
 21
7806.459543257954
 31
0.0
  0
CIRCLE
  5
2CA
330
1F
100
AcDbEntity
  8
KIGOU
  6
Continuous
 62
   255
370
    50
100
AcDbCircle
 10
12695.2368459074
 20
7885.655502750955
 30
0.0
 40
134.3999999999996
  0
LINE
  5
2CB
330
1F
100
AcDbEntity
  8
KIGOU
  6
Continuous
 62
   255
370
    50
100
AcDbLine
 10
12803.8248747135
 20
7806.459543257954
 30
0.0
 11
13166.4328054002
 21
7806.459543257954
 31
0.0
  0
LINE
  5
2CC
330
1F
100
AcDbEntity
  8
KIGOU
  6
Continuous
 62
   255
370
    50
100
AcDbLine
 10
12803.8248747135
 20
7964.851462242954
 30
0.0
 11
13166.4328054002
 21
7964.851462242954
 31
0.0
  0
LINE
  5
2CD
330
1F
100
AcDbEntity
  8
KIGOU
  6
Continuous
 62
   255
370
    50
100
AcDbLine
 10
12224.0408864145
 20
7964.851462242954
 30
0.0
 11
12224.0408864145
 21
7806.459543257954
 31
0.0
  0
LINE
  5
2CE
330
1F
100
AcDbEntity
  8
SONOTA
  6
Continuous
 62
   255
370
    50
100
AcDbLine
 10
11905.1513459064
 20
9611.905502751055
 30
0.0
 11
13747.6493459074
 21
9611.905502751055
 31
0.0
  0
LINE
  5
2CF
330
1F
100
AcDbEntity
  8
SONOTA
  6
Continuous
 62
   255
370
    50
100
AcDbLine
 10
11930.1513459064
 20
9629.405502751055
 30
0.0
 11
11930.1513459064
 21
9579.405502751055
 31
0.0
  0
LINE
  5
2D0
330
1F
100
AcDbEntity
  8
SONOTA
  6
Continuous
 62
   255
370
    50
100
AcDbLine
 10
12826.4003459064
 20
9629.405502751055
 30
0.0
 11
12826.4003459064
 21
9579.405502751055
 31
0.0
  0
LINE
  5
2D1
330
1F
100
AcDbEntity
  8
SONOTA
  6
Continuous
 62
   255
370
    50
100
AcDbLine
 10
13722.6493459074
 20
9629.405502751055
 30
0.0
 11
13722.6493459074
 21
9579.405502751055
 31
0.0
  0
LINE
  5
2D2
330
1F
100
AcDbEntity
  8
SONOTA
  6
Continuous
 62
   255
370
    50
100
AcDbLine
 10
4783.898345907001
 20
13902.96451768565
 30
0.0
 11
7856.401345907
 21
13902.96451768565
 31
0.0
  0
LINE
  5
2D3
330
1F
100
AcDbEntity
  8
SONOTA
  6
Continuous
 62
   255
370
    50
100
AcDbLine
 10
9181.398345907001
 20
14102.96451768565
 30
0.0
 11
4783.898345907001
 21
14102.96451768565
 31
0.0
  0
LINE
  5
2D4
330
1F
100
AcDbEntity
  8
SONOTA
  6
Continuous
 62
   255
370
    50
100
AcDbLine
 10
4603.898345907001
 20
10809.41050275065
 30
0.0
 11
5553.898345907
 21
10809.41050275065
 31
0.0
  0
LINE
  5
2D5
330
1F
100
AcDbEntity
  8
SONOTA
  6
Continuous
 62
   255
370
    50
100
AcDbLine
 10
4783.898345907001
 20
11041.90550275066
 30
0.0
 11
7083.401345907
 21
11041.90550275066
 31
0.0
  0
LINE
  5
2D6
330
1F
100
AcDbEntity
  8
KIGOU
  6
Continuous
 62
   255
370
    50
100
AcDbLine
 10
4850.8273984318
 20
12739.99940837665
 30
0.0
 11
4819.033941284
 21
12708.20595122865
 31
0.0
  0
LINE
  5
2D7
330
1F
100
AcDbEntity
  8
KIGOU
  6
Continuous
 62
   255
370
    50
100
AcDbLine
 10
4850.8273984318
 20
12735.50928031666
 30
0.0
 11
4821.1363914683
 21
12705.81827335266
 31
0.0
  0
LINE
  5
2D8
330
1F
100
AcDbEntity
  8
KIGOU
  6
Continuous
 62
   255
370
    50
100
AcDbLine
 10
4850.8273984318
 20
12731.01915225566
 30
0.0
 11
4823.2882042216
 21
12703.47995804566
 31
0.0
  0
LINE
  5
2D9
330
1F
100
AcDbEntity
  8
KIGOU
  6
Continuous
 62
   255
370
    50
100
AcDbLine
 10
4850.8273984318
 20
12726.52902419566
 30
0.0
 11
4825.4892448697
 21
12701.19087063266
 31
0.0
  0
LINE
  5
2DA
330
1F
100
AcDbEntity
  8
KIGOU
  6
Continuous
 62
   255
370
    50
100
AcDbLine
 10
4850.8273984318
 20
12722.03889613465
 30
0.0
 11
4827.7394500043
 21
12698.95094770766
 31
0.0
  0
LINE
  5
2DB
330
1F
100
AcDbEntity
  8
KIGOU
  6
Continuous
 62
   255
370
    50
100
AcDbLine
 10
4850.8273984318
 20
12717.54876807366
 30
0.0
 11
4830.0388270247
 21
12696.76019666666
 31
0.0
  0
LINE
  5
2DC
330
1F
100
AcDbEntity
  8
KIGOU
  6
Continuous
 62
   255
370
    50
100
AcDbLine
 10
4850.8273984318
 20
12713.05864001365
 30
0.0
 11
4832.387454191299
 21
12694.61869577266
 31
0.0
  0
LINE
  5
2DD
330
1F
100
AcDbEntity
  8
KIGOU
  6
Continuous
 62
   255
370
    50
100
AcDbLine
 10
4850.8273984318
 20
12925.04042892166
 30
0.0
 11
4850.8273984318
 21
12680.64456893066
 31
0.0
  0
ARC
  5
2DE
330
1F
100
AcDbEntity
  8
KIGOU
  6
Continuous
 62
   255
370
    50
100
AcDbCircle
 10
4928.916327148401
 20
12802.84249892666
 30
0.0
 40
145.0179812412998
100
AcDbArc
 50
122.58005979041
 51
237.4199402095944
  0
ARC
  5
2DF
330
1F
100
AcDbEntity
  8
KIGOU
  6
Continuous
 62
   255
370
    50
100
AcDbCircle
 10
4928.9163271483
 20
12802.84249892666
 30
0.0
 40
145.0179812412798
100
AcDbArc
 50
237.4199402095966
 51
122.5800597904001
  0
LINE
  5
2E0
330
1F
100
AcDbEntity
  8
SONOTA
  6
Continuous
 62
   255
370
    50
100
AcDbLine
 10
4783.898345907001
 20
12607.82451768565
 30
0.0
 11
4783.898345907001
 21
13902.96451768565
 31
0.0
  0
LINE
  5
2E1
330
1F
100
AcDbEntity
  8
SONOTA
  6
Continuous
 62
   255
370
    50
100
AcDbLine
 10
4603.898345907001
 20
12607.82451768565
 30
0.0
 11
4603.898345907001
 21
14892.46451768565
 31
0.0
  0
LINE
  5
2E2
330
1F
100
AcDbEntity
  8
SONOTA
  6
Continuous
 62
   255
370
    50
100
AcDbLine
 10
4686.398345907
 20
11077.82451768565
 30
0.0
 11
4686.398345907
 21
11867.82451768565
 31
0.0
  0
LINE
  5
2E3
330
1F
100
AcDbEntity
  8
SONOTA
  6
Continuous
 62
   255
370
    50
100
AcDbLine
 10
4658.898345907001
 20
11077.82451768565
 30
0.0
 11
4658.898345907001
 21
12607.82451768565
 31
0.0
  0
LINE
  5
2E4
330
1F
100
AcDbEntity
  8
SONOTA
  6
Continuous
 62
   255
370
    50
100
AcDbLine
 10
4728.898345907001
 20
11077.82451768565
 30
0.0
 11
4728.898345907001
 21
12607.82451768565
 31
0.0
  0
LINE
  5
2E5
330
1F
100
AcDbEntity
  8
SONOTA
  6
Continuous
 62
   255
370
    50
100
AcDbLine
 10
4783.898345907001
 20
11077.82451768565
 30
0.0
 11
4603.898345907001
 21
11077.82451768565
 31
0.0
  0
LINE
  5
2E6
330
1F
100
AcDbEntity
  8
SONOTA
  6
Continuous
 62
   255
370
    50
100
AcDbLine
 10
4603.898345907001
 20
11077.82451768565
 30
0.0
 11
4603.898345907001
 21
10809.41050275065
 31
0.0
  0
LINE
  5
2E7
330
1F
100
AcDbEntity
  8
SONOTA
  6
Continuous
 62
   255
370
    50
100
AcDbLine
 10
4783.898345907001
 20
11077.82451768565
 30
0.0
 11
4783.898345907001
 21
11041.90550275066
 31
0.0
  0
LINE
  5
2E8
330
1F
100
AcDbEntity
  8
SONOTA
  6
Continuous
 62
   255
370
    50
100
AcDbLine
 10
4701.398345907
 20
12607.82451768565
 30
0.0
 11
4701.398345907
 21
11817.82451768565
 31
0.0
  0
LINE
  5
2E9
330
1F
100
AcDbEntity
  8
SONOTA
  6
Continuous
 62
   255
370
    50
100
AcDbLine
 10
4668.898345907001
 20
11842.82451768565
 30
0.0
 11
4718.898345907001
 21
11842.82451768565
 31
0.0
  0
LINE
  5
2EA
330
1F
100
AcDbEntity
  8
SONOTA
  6
Continuous
 62
   255
370
    50
100
AcDbLine
 10
4603.898345907001
 20
12607.82451768565
 30
0.0
 11
4783.898345907001
 21
12607.82451768565
 31
0.0
  0
LINE
  5
2EB
330
1F
100
AcDbEntity
  8
KIGOU
  6
Continuous
 62
   255
370
    50
100
AcDbLine
 10
4850.8273984319
 20
12742.84249892666
 30
0.0
 11
5060.939866274102
 21
12742.84249892666
 31
0.0
  0
LINE
  5
2EC
330
1F
100
AcDbEntity
  8
KIGOU
  6
Continuous
 62
   255
370
    50
100
AcDbLine
 10
4850.8273984319
 20
12862.84249892666
 30
0.0
 11
5060.939866274102
 21
12862.84249892666
 31
0.0
  0
LINE
  5
2ED
330
1F
100
AcDbEntity
  8
KIGOU
  6
Continuous
 62
   255
370
    50
100
AcDbLine
 10
4838.328393547099
 20
12916.08578203466
 30
0.0
 11
4815.673044040001
 21
12893.43043252766
 31
0.0
  0
LINE
  5
2EE
330
1F
100
AcDbEntity
  8
KIGOU
  6
Continuous
 62
   255
370
    50
100
AcDbLine
 10
4850.8273984318
 20
12924.09465885865
 30
0.0
 11
4805.144122389301
 21
12878.41138281666
 31
0.0
  0
LINE
  5
2EF
330
1F
100
AcDbEntity
  8
KIGOU
  6
Continuous
 62
   255
370
    50
100
AcDbLine
 10
4850.8273984318
 20
12919.60453079865
 30
0.0
 11
4799.500485320001
 21
12868.27761768666
 31
0.0
  0
LINE
  5
2F0
330
1F
100
AcDbEntity
  8
KIGOU
  6
Continuous
 62
   255
370
    50
100
AcDbLine
 10
4850.8273984318
 20
12915.11440273766
 30
0.0
 11
4795.5810186494
 21
12859.86802295566
 31
0.0
  0
LINE
  5
2F1
330
1F
100
AcDbEntity
  8
KIGOU
  6
Continuous
 62
   255
370
    50
100
AcDbLine
 10
4850.8273984318
 20
12910.62427467666
 30
0.0
 11
4792.6436036648
 21
12852.44047990966
 31
0.0
  0
LINE
  5
2F2
330
1F
100
AcDbEntity
  8
KIGOU
  6
Continuous
 62
   255
370
    50
100
AcDbLine
 10
4850.8273984318
 20
12906.13414661665
 30
0.0
 11
4790.368133984201
 21
12845.67488216865
 31
0.0
  0
LINE
  5
2F3
330
1F
100
AcDbEntity
  8
KIGOU
  6
Continuous
 62
   255
370
    50
100
AcDbLine
 10
4850.8273984318
 20
12901.64401855566
 30
0.0
 11
4788.581318213599
 21
12839.39793833766
 31
0.0
  0
LINE
  5
2F4
330
1F
100
AcDbEntity
  8
KIGOU
  6
Continuous
 62
   255
370
    50
100
AcDbLine
 10
4850.8273984318
 20
12897.15389049566
 30
0.0
 11
4787.176633041001
 21
12833.50312510466
 31
0.0
  0
LINE
  5
2F5
330
1F
100
AcDbEntity
  8
KIGOU
  6
Continuous
 62
   255
370
    50
100
AcDbLine
 10
4850.8273984318
 20
12892.66376243466
 30
0.0
 11
4786.0829729232
 21
12827.91933692665
 31
0.0
  0
LINE
  5
2F6
330
1F
100
AcDbEntity
  8
KIGOU
  6
Continuous
 62
   255
370
    50
100
AcDbLine
 10
4850.8273984318
 20
12888.17363437465
 30
0.0
 11
4785.2500355053
 21
12822.59627144766
 31
0.0
  0
LINE
  5
2F7
330
1F
100
AcDbEntity
  8
KIGOU
  6
Continuous
 62
   255
370
    50
100
AcDbLine
 10
4850.8273984318
 20
12883.68350631366
 30
0.0
 11
4784.640663265002
 21
12817.49677114665
 31
0.0
  0
LINE
  5
2F8
330
1F
100
AcDbEntity
  8
KIGOU
  6
Continuous
 62
   255
370
    50
100
AcDbLine
 10
4850.8273984318
 20
12879.19337825365
 30
0.0
 11
4784.226475264502
 21
12812.59245508566
 31
0.0
  0
LINE
  5
2F9
330
1F
100
AcDbEntity
  8
KIGOU
  6
Continuous
 62
   255
370
    50
100
AcDbLine
 10
4850.8273984318
 20
12874.70325019266
 30
0.0
 11
4783.9852093121
 21
12807.86106107266
 31
0.0
  0
LINE
  5
2FA
330
1F
100
AcDbEntity
  8
KIGOU
  6
Continuous
 62
   255
370
    50
100
AcDbLine
 10
4850.8273984318
 20
12870.21312213266
 30
0.0
 11
4783.899020241001
 21
12803.28474394166
 31
0.0
  0
LINE
  5
2FB
330
1F
100
AcDbEntity
  8
KIGOU
  6
Continuous
 62
   255
370
    50
100
AcDbLine
 10
4850.8273984318
 20
12865.72299407166
 30
0.0
 11
4783.9533443885
 21
12798.84894002865
 31
0.0
  0
LINE
  5
2FC
330
1F
100
AcDbEntity
  8
KIGOU
  6
Continuous
 62
   255
370
    50
100
AcDbLine
 10
4850.8273984318
 20
12861.23286601166
 30
0.0
 11
4784.1361155181
 21
12794.54158309766
 31
0.0
  0
LINE
  5
2FD
330
1F
100
AcDbEntity
  8
KIGOU
  6
Continuous
 62
   255
370
    50
100
AcDbLine
 10
4850.8273984318
 20
12856.74273795066
 30
0.0
 11
4784.437207594601
 21
12790.35254711366
 31
0.0
  0
LINE
  5
2FE
330
1F
100
AcDbEntity
  8
KIGOU
  6
Continuous
 62
   255
370
    50
100
AcDbLine
 10
4850.8273984318
 20
12852.25260989066
 30
0.0
 11
4784.848028919801
 21
12786.27324037766
 31
0.0
  0
LINE
  5
2FF
330
1F
100
AcDbEntity
  8
KIGOU
  6
Continuous
 62
   255
370
    50
100
AcDbLine
 10
4850.8273984318
 20
12847.76248182966
 30
0.0
 11
4785.361220169902
 21
12782.29630356766
 31
0.0
  0
LINE
  5
300
330
1F
100
AcDbEntity
  8
KIGOU
  6
Continuous
 62
   255
370
    50
100
AcDbLine
 10
4850.8273984318
 20
12843.27235376865
 30
0.0
 11
4785.9704255385
 21
12778.41538087566
 31
0.0
  0
LINE
  5
301
330
1F
100
AcDbEntity
  8
KIGOU
  6
Continuous
 62
   255
370
    50
100
AcDbLine
 10
4850.8273984318
 20
12838.78222570865
 30
0.0
 11
4786.670116438801
 21
12774.62494371566
 31
0.0
  0
LINE
  5
302
330
1F
100
AcDbEntity
  8
KIGOU
  6
Continuous
 62
   255
370
    50
100
AcDbLine
 10
4850.8273984318
 20
12834.29209764766
 30
0.0
 11
4787.455453723798
 21
12770.92015293966
 31
0.0
  0
LINE
  5
303
330
1F
100
AcDbEntity
  8
KIGOU
  6
Continuous
 62
   255
370
    50
100
AcDbLine
 10
4850.8273984318
 20
12829.80196958766
 30
0.0
 11
4788.322178619401
 21
12767.29674977466
 31
0.0
  0
LINE
  5
304
330
1F
100
AcDbEntity
  8
KIGOU
  6
Continuous
 62
   255
370
    50
100
AcDbLine
 10
4850.8273984318
 20
12825.31184152665
 30
0.0
 11
4789.2665253902
 21
12763.75096848566
 31
0.0
  0
LINE
  5
305
330
1F
100
AcDbEntity
  8
KIGOU
  6
Continuous
 62
   255
370
    50
100
AcDbLine
 10
4850.8273984318
 20
12820.82171346665
 30
0.0
 11
4790.2851506852
 21
12760.27946571966
 31
0.0
  0
LINE
  5
306
330
1F
100
AcDbEntity
  8
KIGOU
  6
Continuous
 62
   255
370
    50
100
AcDbLine
 10
4850.8273984318
 20
12816.33158540566
 30
0.0
 11
4791.375075845601
 21
12756.87926281966
 31
0.0
  0
LINE
  5
307
330
1F
100
AcDbEntity
  8
KIGOU
  6
Continuous
 62
   255
370
    50
100
AcDbLine
 10
4850.8273984318
 20
12811.84145734566
 30
0.0
 11
4792.533639404301
 21
12753.54769831766
 31
0.0
  0
LINE
  5
308
330
1F
100
AcDbEntity
  8
KIGOU
  6
Continuous
 62
   255
370
    50
100
AcDbLine
 10
4850.8273984318
 20
12807.35132928466
 30
0.0
 11
4793.758457681201
 21
12750.28238853466
 31
0.0
  0
LINE
  5
309
330
1F
100
AcDbEntity
  8
KIGOU
  6
Continuous
 62
   255
370
    50
100
AcDbLine
 10
4850.8273984318
 20
12802.86120122466
 30
0.0
 11
4795.047391876499
 21
12747.08119466865
 31
0.0
  0
LINE
  5
30A
330
1F
100
AcDbEntity
  8
KIGOU
  6
Continuous
 62
   255
370
    50
100
AcDbLine
 10
4850.8273984318
 20
12798.37107316366
 30
0.0
 11
4796.3985204239
 21
12743.94219515566
 31
0.0
  0
LINE
  5
30B
330
1F
100
AcDbEntity
  8
KIGOU
  6
Continuous
 62
   255
370
    50
100
AcDbLine
 10
4850.8273984318
 20
12793.88094510365
 30
0.0
 11
4797.8101156423
 21
12740.86366231365
 31
0.0
  0
LINE
  5
30C
330
1F
100
AcDbEntity
  8
KIGOU
  6
Continuous
 62
   255
370
    50
100
AcDbLine
 10
4850.8273984318
 20
12789.39081704266
 30
0.0
 11
4799.2806239251
 21
12737.84404253566
 31
0.0
  0
LINE
  5
30D
330
1F
100
AcDbEntity
  8
KIGOU
  6
Continuous
 62
   255
370
    50
100
AcDbLine
 10
4850.8273984318
 20
12784.90068898166
 30
0.0
 11
4800.8086488672
 21
12734.88193941766
 31
0.0
  0
LINE
  5
30E
330
1F
100
AcDbEntity
  8
KIGOU
  6
Continuous
 62
   255
370
    50
100
AcDbLine
 10
4850.8273984318
 20
12780.41056092166
 30
0.0
 11
4802.3929368491
 21
12731.97609933865
 31
0.0
  0
LINE
  5
30F
330
1F
100
AcDbEntity
  8
KIGOU
  6
Continuous
 62
   255
370
    50
100
AcDbLine
 10
4850.8273984318
 20
12775.92043286066
 30
0.0
 11
4804.032364689901
 21
12729.12539911866
 31
0.0
  0
LINE
  5
310
330
1F
100
AcDbEntity
  8
KIGOU
  6
Continuous
 62
   255
370
    50
100
AcDbLine
 10
4850.8273984318
 20
12771.43030480066
 30
0.0
 11
4805.7259290592
 21
12726.32883542766
 31
0.0
  0
LINE
  5
311
330
1F
100
AcDbEntity
  8
KIGOU
  6
Continuous
 62
   255
370
    50
100
AcDbLine
 10
4850.8273984318
 20
12766.94017673966
 30
0.0
 11
4807.4727373912
 21
12723.58551569966
 31
0.0
  0
LINE
  5
312
330
1F
100
AcDbEntity
  8
KIGOU
  6
Continuous
 62
   255
370
    50
100
AcDbLine
 10
4850.8273984318
 20
12762.45004867966
 30
0.0
 11
4809.272000095501
 21
12720.89465034366
 31
0.0
  0
LINE
  5
313
330
1F
100
AcDbEntity
  8
KIGOU
  6
Continuous
 62
   255
370
    50
100
AcDbLine
 10
4850.8273984318
 20
12757.95992061865
 30
0.0
 11
4811.123023893701
 21
12718.25554608066
 31
0.0
  0
LINE
  5
314
330
1F
100
AcDbEntity
  8
KIGOU
  6
Continuous
 62
   255
370
    50
100
AcDbLine
 10
4850.8273984318
 20
12753.46979255865
 30
0.0
 11
4813.0252061439
 21
12715.66760027066
 31
0.0
  0
LINE
  5
315
330
1F
100
AcDbEntity
  8
KIGOU
  6
Continuous
 62
   255
370
    50
100
AcDbLine
 10
4850.8273984318
 20
12748.97966449766
 30
0.0
 11
4814.9780300388
 21
12713.13029610466
 31
0.0
  0
LINE
  5
316
330
1F
100
AcDbEntity
  8
KIGOU
  6
Continuous
 62
   255
370
    50
100
AcDbLine
 10
4850.8273984318
 20
12744.48953643766
 30
0.0
 11
4816.9810605843
 21
12710.64319858965
 31
0.0
  0
LINE
  5
317
330
1F
100
AcDbEntity
  8
SONOTA
  6
Continuous
 62
   255
370
    50
100
AcDbLine
 10
4783.898345907001
 20
14102.96451768565
 30
0.0
 11
4783.898345907001
 21
14892.46451768565
 31
0.0
  0
LINE
  5
318
330
1F
100
AcDbEntity
  8
KIGOU
  6
Continuous
 62
   255
370
    50
100
AcDbLine
 10
4850.8273984318
 20
12708.56851195266
 30
0.0
 11
4834.7854811907
 21
12692.52659471166
 31
0.0
  0
LINE
  5
319
330
1F
100
AcDbEntity
  8
KIGOU
  6
Continuous
 62
   255
370
    50
100
AcDbLine
 10
4850.8273984318
 20
12704.07838389266
 30
0.0
 11
4837.233130223
 21
12690.48411568365
 31
0.0
  0
LINE
  5
31A
330
1F
100
AcDbEntity
  8
KIGOU
  6
Continuous
 62
   255
370
    50
100
AcDbLine
 10
4850.8273984318
 20
12699.58825583166
 30
0.0
 11
4839.730697628001
 21
12688.49155502866
 31
0.0
  0
LINE
  5
31B
330
1F
100
AcDbEntity
  8
KIGOU
  6
Continuous
 62
   255
370
    50
100
AcDbLine
 10
4850.8273984318
 20
12695.09812777166
 30
0.0
 11
4842.2785560802
 21
12686.54928541966
 31
0.0
  0
LINE
  5
31C
330
1F
100
AcDbEntity
  8
KIGOU
  6
Continuous
 62
   255
370
    50
100
AcDbLine
 10
4850.8273984318
 20
12690.60799971066
 30
0.0
 11
4844.87715739
 21
12684.65775866865
 31
0.0
  0
LINE
  5
31D
330
1F
100
AcDbEntity
  8
KIGOU
  6
Continuous
 62
   255
370
    50
100
AcDbLine
 10
4850.8273984318
 20
12686.11787165066
 30
0.0
 11
4847.527035961901
 21
12682.81750918066
 31
0.0
  0
LINE
  5
31E
330
1F
100
AcDbEntity
  8
KIGOU
  6
Continuous
 62
   255
370
    50
100
AcDbLine
 10
4850.8273984318
 20
12681.62774358966
 30
0.0
 11
4850.2288129717
 21
12681.02915812966
 31
0.0
  0
LINE
  5
31F
330
1F
100
AcDbEntity
  8
SONOTA
  6
Continuous
 62
   255
370
    50
100
AcDbLine
 10
4603.898345907001
 20
14892.46451768565
 30
0.0
 11
4783.898345907001
 21
14892.46451768565
 31
0.0
  0
LINE
  5
320
330
1F
100
AcDbEntity
  8
SONOTA
  6
Continuous
 62
   255
370
    50
100
AcDbLine
 10
10006.3983459064
 20
14692.46451768565
 30
0.0
 11
9181.398345907001
 21
14692.46451768565
 31
0.0
  0
LINE
  5
321
330
1F
100
AcDbEntity
  8
SONOTA
  6
Continuous
 62
   255
370
    50
100
AcDbLine
 10
8581.398345907001
 20
13902.96451768565
 30
0.0
 11
10056.4023459074
 21
13902.96451768565
 31
0.0
  0
ARC
  5
322
330
1F
100
AcDbEntity
  8
SONOTA
  6
Continuous
 62
   255
370
    50
100
AcDbCircle
 10
9663.4383459069
 20
12737.79151768566
 30
0.0
 40
500.0
100
AcDbArc
 50
103.1809899993
 51
114.5545500004801
  0
ARC
  5
323
330
1F
100
AcDbEntity
  8
SONOTA
  6
Continuous
 62
   255
370
    50
100
AcDbCircle
 10
9555.5483459069
 20
14060.07151768565
 30
0.0
 40
370.0
100
AcDbArc
 50
246.4056300004396
 51
267.8948199994796
  0
ARC
  5
324
330
1F
100
AcDbEntity
  8
SONOTA
  6
Continuous
 62
   255
370
    50
100
AcDbCircle
 10
9328.900845657801
 20
9448.337131185255
 30
0.0
 40
4333.9455318397
100
AcDbArc
 50
82.454106179581
 51
97.54589370603701
  0
LINE
  5
325
330
1F
100
AcDbEntity
  8
SONOTA
  6
Continuous
 62
   255
370
    50
100
AcDbLine
 10
9230.025345906899
 20
13022.46551768565
 30
0.0
 11
10056.4023459074
 21
13022.46551768565
 31
0.0
  0
ARC
  5
326
330
1F
100
AcDbEntity
  8
SONOTA
  6
Continuous
 62
   255
370
    50
100
AcDbCircle
 10
9281.786558977001
 20
15426.81566558966
 30
0.0
 40
2306.6816447699
100
AcDbArc
 50
273.9102077184896
 51
285.4831614244397
  0
LINE
  5
327
330
1F
100
AcDbEntity
  8
SONOTA
  6
Continuous
 62
   255
370
    50
100
AcDbLine
 10
10056.4023459074
 20
11924.96451768565
 30
0.0
 11
9406.9593459068
 21
11924.96451768565
 31
0.0
  0
LINE
  5
328
330
1F
100
AcDbEntity
  8
SONOTA
  6
Continuous
 62
   255
370
    50
100
AcDbLine
 10
9406.9593459069
 20
11999.96451768565
 30
0.0
 11
10056.4023459074
 21
11999.96451768565
 31
0.0
  0
ARC
  5
329
330
1F
100
AcDbEntity
  8
SONOTA
  6
Continuous
 62
   255
370
    50
100
AcDbCircle
 10
9581.515345907001
 20
11295.46351768565
 30
0.0
 40
99.99999799999932
100
AcDbArc
 50
180.0117399999098
 51
262.9783400005199
  0
ARC
  5
32A
330
1F
100
AcDbEntity
  8
SONOTA
  6
Continuous
 62
   255
370
    50
100
AcDbCircle
 10
9581.515345907001
 20
11629.46451768565
 30
0.0
 40
99.99999799999932
100
AcDbArc
 50
97.0216670005716
 51
179.9882799999895
  0
ARC
  5
32B
330
1F
100
AcDbEntity
  8
SONOTA
  6
Continuous
 62
   255
370
    50
100
AcDbCircle
 10
9585.704345906999
 20
11695.46451768565
 30
0.0
 40
125.0000099999998
100
AcDbArc
 50
105.5343300000403
 51
167.2699800003397
  0
LINE
  5
32C
330
1F
100
AcDbEntity
  8
SONOTA
  6
Continuous
 62
   255
370
    50
100
AcDbLine
 10
9429.401345906999
 20
10541.90550275066
 30
0.0
 11
10056.4023459074
 21
10541.90550275066
 31
0.0
  0
LINE
  5
32D
330
1F
100
AcDbEntity
  8
SONOTA
  6
Continuous
 62
   255
370
    50
100
AcDbLine
 10
9429.401345906999
 20
10466.90550275066
 30
0.0
 11
10056.4023459074
 21
10466.90550275066
 31
0.0
  0
ARC
  5
32E
330
1F
100
AcDbEntity
  8
SONOTA
  6
Continuous
 62
   255
370
    50
100
AcDbCircle
 10
9585.704345906999
 20
11229.46351768565
 30
0.0
 40
125.0000099999998
100
AcDbArc
 50
192.7300199996496
 51
254.4656900005596
  0
ARC
  5
32F
330
1F
100
AcDbEntity
  8
SONOTA
  6
Continuous
 62
   255
370
    50
100
AcDbCircle
 10
8650.264849809601
 20
12003.26437581066
 30
0.0
 40
756.7013721306994
100
AcDbArc
 50
359.7557443099697
 51
90.10331731934807
  0
LINE
  5
330
330
1F
100
AcDbEntity
  8
SONOTA
  6
Continuous
 62
   255
370
    50
100
AcDbLine
 10
8506.398345907001
 20
13902.96451768565
 30
0.0
 11
8506.398345907001
 21
12829.95851768565
 31
0.0
  0
LINE
  5
331
330
1F
100
AcDbEntity
  8
KIGOU
  6
Continuous
 62
   255
370
    50
100
AcDbLine
 10
6211.572817101
 20
12551.63096971156
 30
0.0
 11
5848.964886414
 21
12551.63096971156
 31
0.0
  0
LINE
  5
332
330
1F
100
AcDbEntity
  8
KIGOU
  6
Continuous
 62
   255
370
    50
100
AcDbLine
 10
6211.572817101
 20
12393.23905072576
 30
0.0
 11
5848.964886414
 21
12393.23905072576
 31
0.0
  0
LINE
  5
333
330
1F
100
AcDbEntity
  8
SONOTA
  6
Continuous
 62
   255
370
    50
100
AcDbLine
 10
7856.401345907
 20
11999.96351768565
 30
0.0
 11
7856.401345907
 21
13659.96351768565
 31
0.0
  0
LINE
  5
334
330
1F
100
AcDbEntity
  8
SONOTA
  6
Continuous
 62
   255
370
    50
100
AcDbLine
 10
7886.401345907
 20
11999.96351768565
 30
0.0
 11
7886.401345907
 21
13659.96351768565
 31
0.0
  0
LINE
  5
335
330
1F
100
AcDbEntity
  8
SONOTA
  6
Continuous
 62
   255
370
    50
100
AcDbLine
 10
8581.398345907001
 20
13902.96451768565
 30
0.0
 11
8581.398345907001
 21
11999.96451768565
 31
0.0
  0
ARC
  5
336
330
1F
100
AcDbEntity
  8
SONOTA
  6
Continuous
 62
   255
370
    50
100
AcDbCircle
 10
7829.991676061701
 20
11045.30874681066
 30
0.0
 40
746.598086757921
100
AcDbArc
 50
89.891818393732
 51
180.2611742515797
  0
LINE
  5
337
330
1F
100
AcDbEntity
  8
SONOTA
  6
Continuous
 62
   255
370
    50
100
AcDbLine
 10
5743.898345907
 20
10966.90550275166
 30
0.0
 11
7083.401345907
 21
10966.90550275166
 31
0.0
  0
CIRCLE
  5
338
330
1F
100
AcDbEntity
  8
KIGOU
  6
Continuous
 62
   255
370
    50
100
AcDbCircle
 10
6193.900451958099
 20
10254.40510275166
 30
0.0
 40
145.0179812412898
  0
LINE
  5
339
330
1F
100
AcDbEntity
  8
SONOTA
  6
Continuous
 62
   255
370
    50
100
AcDbLine
 10
5743.899345907
 20
10966.91050275166
 30
0.0
 11
5743.899345907
 21
10579.41050275065
 31
0.0
  0
LINE
  5
33A
330
1F
100
AcDbEntity
  8
SONOTA
  6
Continuous
 62
   255
370
    50
100
AcDbLine
 10
5553.898345907
 20
10809.41050275065
 30
0.0
 11
5553.898345907
 21
10579.41050275065
 31
0.0
  0
LINE
  5
33B
330
1F
100
AcDbEntity
  8
SONOTA
  6
Continuous
 62
   255
370
    50
100
AcDbLine
 10
5553.898345907
 20
10579.41250275065
 30
0.0
 11
5743.899345907
 21
10579.41250275065
 31
0.0
  0
LINE
  5
33C
330
1F
100
AcDbEntity
  8
KIGOU
  6
Continuous
 62
   255
370
    50
100
AcDbLine
 10
6910.3745126882
 20
11108.83455527665
 30
0.0
 11
6958.808974271003
 21
11060.40009369365
 31
0.0
  0
LINE
  5
33D
330
1F
100
AcDbEntity
  8
KIGOU
  6
Continuous
 62
   255
370
    50
100
AcDbLine
 10
6914.864640748702
 20
11108.83455527665
 30
0.0
 11
6961.659674490703
 21
11062.03952153465
 31
0.0
  0
LINE
  5
33E
330
1F
100
AcDbEntity
  8
KIGOU
  6
Continuous
 62
   255
370
    50
100
AcDbLine
 10
6919.354768809302
 20
11108.83455527665
 30
0.0
 11
6964.456238181902
 21
11063.73308590365
 31
0.0
  0
LINE
  5
33F
330
1F
100
AcDbEntity
  8
KIGOU
  6
Continuous
 62
   255
370
    50
100
AcDbLine
 10
6923.844896869804
 20
11108.83455527665
 30
0.0
 11
6967.199557910403
 21
11065.47989423565
 31
0.0
  0
LINE
  5
340
330
1F
100
AcDbEntity
  8
KIGOU
  6
Continuous
 62
   255
370
    50
100
AcDbLine
 10
6928.335024930303
 20
11108.83455527665
 30
0.0
 11
6969.890423266603
 21
11067.27915693965
 31
0.0
  0
LINE
  5
341
330
1F
100
AcDbEntity
  8
KIGOU
  6
Continuous
 62
   255
370
    50
100
AcDbLine
 10
6932.825152990902
 20
11108.83455527665
 30
0.0
 11
6972.529527529003
 21
11069.13018073865
 31
0.0
  0
LINE
  5
342
330
1F
100
AcDbEntity
  8
KIGOU
  6
Continuous
 62
   255
370
    50
100
AcDbLine
 10
6937.315281051404
 20
11108.83455527665
 30
0.0
 11
6975.117473339302
 21
11071.03236298865
 31
0.0
  0
LINE
  5
343
330
1F
100
AcDbEntity
  8
KIGOU
  6
Continuous
 62
   255
370
    50
100
AcDbLine
 10
6941.805409111902
 20
11108.83455527665
 30
0.0
 11
6977.654777505001
 21
11072.98518688365
 31
0.0
  0
LINE
  5
344
330
1F
100
AcDbEntity
  8
KIGOU
  6
Continuous
 62
   255
370
    50
100
AcDbLine
 10
6946.295537172503
 20
11108.83455527665
 30
0.0
 11
6980.141875020003
 21
11074.98821742865
 31
0.0
  0
LINE
  5
345
330
1F
100
AcDbEntity
  8
KIGOU
  6
Continuous
 62
   255
370
    50
100
AcDbLine
 10
6950.785665233002
 20
11108.83455527665
 30
0.0
 11
6982.5791223809
 21
11077.04109812865
 31
0.0
  0
LINE
  5
346
330
1F
100
AcDbEntity
  8
KIGOU
  6
Continuous
 62
   255
370
    50
100
AcDbLine
 10
6955.275793293502
 20
11108.83455527665
 30
0.0
 11
6984.966800257002
 21
11079.14354831265
 31
0.0
  0
ARC
  5
347
330
1F
100
AcDbEntity
  8
KIGOU
  6
Continuous
 62
   255
370
    50
100
AcDbCircle
 10
6887.942574683702
 20
11186.92348399265
 30
0.0
 40
145.0179812412998
100
AcDbArc
 50
212.5800597897799
 51
327.4199402101793
  0
LINE
  5
348
330
1F
100
AcDbEntity
  8
KIGOU
  6
Continuous
 62
   255
370
    50
100
AcDbLine
 10
6765.744644688002
 20
11108.83455527665
 30
0.0
 11
7010.140504679202
 21
11108.83455527665
 31
0.0
  0
ARC
  5
349
330
1F
100
AcDbEntity
  8
KIGOU
  6
Continuous
 62
   255
370
    50
100
AcDbCircle
 10
6887.942574683601
 20
11186.92348399265
 30
0.0
 40
145.0179812412798
100
AcDbArc
 50
327.4199402102494
 51
212.5800597897485
  0
LINE
  5
34A
330
1F
100
AcDbEntity
  8
KIGOU
  6
Continuous
 62
   255
370
    50
100
AcDbLine
 10
6959.765921354103
 20
11108.83455527665
 30
0.0
 11
6987.305115564302
 21
11081.29536106565
 31
0.0
  0
LINE
  5
34B
330
1F
100
AcDbEntity
  8
KIGOU
  6
Continuous
 62
   255
370
    50
100
AcDbLine
 10
6964.256049414602
 20
11108.83455527665
 30
0.0
 11
6989.594202976703
 21
11083.49640171465
 31
0.0
  0
LINE
  5
34C
330
1F
100
AcDbEntity
  8
KIGOU
  6
Continuous
 62
   255
370
    50
100
AcDbLine
 10
6968.746177475104
 20
11108.83455527665
 30
0.0
 11
6991.834125902604
 21
11085.74660684865
 31
0.0
  0
LINE
  5
34D
330
1F
100
AcDbEntity
  8
KIGOU
  6
Continuous
 62
   255
370
    50
100
AcDbLine
 10
6973.236305535702
 20
11108.83455527665
 30
0.0
 11
6994.024876942803
 21
11088.04598386965
 31
0.0
  0
LINE
  5
34E
330
1F
100
AcDbEntity
  8
KIGOU
  6
Continuous
 62
   255
370
    50
100
AcDbLine
 10
6977.726433596203
 20
11108.83455527665
 30
0.0
 11
6996.166377836802
 21
11090.39461103565
 31
0.0
  0
LINE
  5
34F
330
1F
100
AcDbEntity
  8
KIGOU
  6
Continuous
 62
   255
370
    50
100
AcDbLine
 10
6982.216561656702
 20
11108.83455527665
 30
0.0
 11
6998.258478897803
 21
11092.79263803565
 31
0.0
  0
LINE
  5
350
330
1F
100
AcDbEntity
  8
KIGOU
  6
Continuous
 62
   255
370
    50
100
AcDbLine
 10
6986.706689717304
 20
11108.83455527665
 30
0.0
 11
7000.300957926103
 21
11095.24028706765
 31
0.0
  0
LINE
  5
351
330
1F
100
AcDbEntity
  8
KIGOU
  6
Continuous
 62
   255
370
    50
100
AcDbLine
 10
6991.196817777803
 20
11108.83455527665
 30
0.0
 11
7002.293518581604
 21
11097.73785447265
 31
0.0
  0
LINE
  5
352
330
1F
100
AcDbEntity
  8
KIGOU
  6
Continuous
 62
   255
370
    50
100
AcDbLine
 10
6995.686945838303
 20
11108.83455527665
 30
0.0
 11
7004.235788190003
 21
11100.28571292465
 31
0.0
  0
LINE
  5
353
330
1F
100
AcDbEntity
  8
KIGOU
  6
Continuous
 62
   255
370
    50
100
AcDbLine
 10
7000.177073898903
 20
11108.83455527665
 30
0.0
 11
7006.127314940701
 21
11102.88431423465
 31
0.0
  0
LINE
  5
354
330
1F
100
AcDbEntity
  8
KIGOU
  6
Continuous
 62
   255
370
    50
100
AcDbLine
 10
7004.667201959402
 20
11108.83455527665
 30
0.0
 11
7007.967564429402
 21
11105.53419280665
 31
0.0
  0
LINE
  5
355
330
1F
100
AcDbEntity
  8
KIGOU
  6
Continuous
 62
   255
370
    50
100
AcDbLine
 10
7009.157330019903
 20
11108.83455527665
 30
0.0
 11
7009.755915480104
 21
11108.23596981665
 31
0.0
  0
LINE
  5
356
330
1F
100
AcDbEntity
  8
SONOTA
  6
Continuous
 62
   255
370
    50
100
AcDbLine
 10
7083.401345907
 20
11041.90550275066
 30
0.0
 11
7083.401345907
 21
10966.90550275166
 31
0.0
  0
LINE
  5
357
330
1F
100
AcDbEntity
  8
KIGOU
  6
Continuous
 62
   255
370
    50
100
AcDbLine
 10
6774.699291575303
 20
11096.33555039165
 30
0.0
 11
6797.354641082403
 21
11073.68020088465
 31
0.0
  0
LINE
  5
358
330
1F
100
AcDbEntity
  8
KIGOU
  6
Continuous
 62
   255
370
    50
100
AcDbLine
 10
6766.690414751102
 20
11108.83455527665
 30
0.0
 11
6812.373690793604
 21
11063.15127923365
 31
0.0
  0
LINE
  5
359
330
1F
100
AcDbEntity
  8
KIGOU
  6
Continuous
 62
   255
370
    50
100
AcDbLine
 10
6771.180542811603
 20
11108.83455527665
 30
0.0
 11
6822.507455923503
 21
11057.50764216465
 31
0.0
  0
LINE
  5
35A
330
1F
100
AcDbEntity
  8
KIGOU
  6
Continuous
 62
   255
370
    50
100
AcDbLine
 10
6775.670670872102
 20
11108.83455527665
 30
0.0
 11
6830.917050654603
 21
11053.58817549365
 31
0.0
  0
LINE
  5
35B
330
1F
100
AcDbEntity
  8
KIGOU
  6
Continuous
 62
   255
370
    50
100
AcDbLine
 10
6780.160798932704
 20
11108.83455527665
 30
0.0
 11
6838.344593699701
 21
11050.65076050965
 31
0.0
  0
LINE
  5
35C
330
1F
100
AcDbEntity
  8
KIGOU
  6
Continuous
 62
   255
370
    50
100
AcDbLine
 10
6784.650926993202
 20
11108.83455527665
 30
0.0
 11
6845.110191440801
 21
11048.37529082865
 31
0.0
  0
LINE
  5
35D
330
1F
100
AcDbEntity
  8
KIGOU
  6
Continuous
 62
   255
370
    50
100
AcDbLine
 10
6789.141055053701
 20
11108.83455527665
 30
0.0
 11
6851.387135272003
 21
11046.58847505765
 31
0.0
  0
LINE
  5
35E
330
1F
100
AcDbEntity
  8
KIGOU
  6
Continuous
 62
   255
370
    50
100
AcDbLine
 10
6793.631183114302
 20
11108.83455527665
 30
0.0
 11
6857.281948505104
 21
11045.18378988565
 31
0.0
  0
LINE
  5
35F
330
1F
100
AcDbEntity
  8
KIGOU
  6
Continuous
 62
   255
370
    50
100
AcDbLine
 10
6798.121311174802
 20
11108.83455527665
 30
0.0
 11
6862.865736683502
 21
11044.09012976765
 31
0.0
  0
LINE
  5
360
330
1F
100
AcDbEntity
  8
KIGOU
  6
Continuous
 62
   255
370
    50
100
AcDbLine
 10
6802.611439235303
 20
11108.83455527665
 30
0.0
 11
6868.188802161902
 21
11043.25719234965
 31
0.0
  0
LINE
  5
361
330
1F
100
AcDbEntity
  8
KIGOU
  6
Continuous
 62
   255
370
    50
100
AcDbLine
 10
6807.101567295901
 20
11108.83455527665
 30
0.0
 11
6873.288302462703
 21
11042.64782010965
 31
0.0
  0
LINE
  5
362
330
1F
100
AcDbEntity
  8
KIGOU
  6
Continuous
 62
   255
370
    50
100
AcDbLine
 10
6811.591695356403
 20
11108.83455527665
 30
0.0
 11
6878.192618523803
 21
11042.23363210865
 31
0.0
  0
LINE
  5
363
330
1F
100
AcDbEntity
  8
KIGOU
  6
Continuous
 62
   255
370
    50
100
AcDbLine
 10
6816.081823417002
 20
11108.83455527665
 30
0.0
 11
6882.924012536701
 21
11041.99236615665
 31
0.0
  0
LINE
  5
364
330
1F
100
AcDbEntity
  8
KIGOU
  6
Continuous
 62
   255
370
    50
100
AcDbLine
 10
6820.571951477503
 20
11108.83455527665
 30
0.0
 11
6887.500329668304
 21
11041.90617708565
 31
0.0
  0
LINE
  5
365
330
1F
100
AcDbEntity
  8
KIGOU
  6
Continuous
 62
   255
370
    50
100
AcDbLine
 10
6825.062079538002
 20
11108.83455527665
 30
0.0
 11
6891.936133581403
 21
11041.96050123265
 31
0.0
  0
LINE
  5
366
330
1F
100
AcDbEntity
  8
KIGOU
  6
Continuous
 62
   255
370
    50
100
AcDbLine
 10
6829.552207598603
 20
11108.83455527665
 30
0.0
 11
6896.243490512304
 21
11042.14327236265
 31
0.0
  0
LINE
  5
367
330
1F
100
AcDbEntity
  8
KIGOU
  6
Continuous
 62
   255
370
    50
100
AcDbLine
 10
6834.042335659103
 20
11108.83455527665
 30
0.0
 11
6900.432526496303
 21
11042.44436443965
 31
0.0
  0
LINE
  5
368
330
1F
100
AcDbEntity
  8
KIGOU
  6
Continuous
 62
   255
370
    50
100
AcDbLine
 10
6838.532463719601
 20
11108.83455527665
 30
0.0
 11
6904.511833231702
 21
11042.85518576465
 31
0.0
  0
LINE
  5
369
330
1F
100
AcDbEntity
  8
KIGOU
  6
Continuous
 62
   255
370
    50
100
AcDbLine
 10
6843.022591780203
 20
11108.83455527665
 30
0.0
 11
6908.488770042102
 21
11043.36837701465
 31
0.0
  0
LINE
  5
36A
330
1F
100
AcDbEntity
  8
KIGOU
  6
Continuous
 62
   255
370
    50
100
AcDbLine
 10
6847.512719840702
 20
11108.83455527665
 30
0.0
 11
6912.369692734003
 21
11043.97758238265
 31
0.0
  0
LINE
  5
36B
330
1F
100
AcDbEntity
  8
KIGOU
  6
Continuous
 62
   255
370
    50
100
AcDbLine
 10
6852.002847901203
 20
11108.83455527665
 30
0.0
 11
6916.160129894301
 21
11044.67727328365
 31
0.0
  0
LINE
  5
36C
330
1F
100
AcDbEntity
  8
KIGOU
  6
Continuous
 62
   255
370
    50
100
AcDbLine
 10
6856.492975961802
 20
11108.83455527665
 30
0.0
 11
6919.864920669804
 21
11045.46261056865
 31
0.0
  0
LINE
  5
36D
330
1F
100
AcDbEntity
  8
KIGOU
  6
Continuous
 62
   255
370
    50
100
AcDbLine
 10
6860.983104022303
 20
11108.83455527665
 30
0.0
 11
6923.488323834802
 21
11046.32933546365
 31
0.0
  0
LINE
  5
36E
330
1F
100
AcDbEntity
  8
KIGOU
  6
Continuous
 62
   255
370
    50
100
AcDbLine
 10
6865.473232082803
 20
11108.83455527665
 30
0.0
 11
6927.034105124502
 21
11047.27368223465
 31
0.0
  0
LINE
  5
36F
330
1F
100
AcDbEntity
  8
KIGOU
  6
Continuous
 62
   255
370
    50
100
AcDbLine
 10
6869.963360143403
 20
11108.83455527665
 30
0.0
 11
6930.505607890003
 21
11048.29230752965
 31
0.0
  0
LINE
  5
370
330
1F
100
AcDbEntity
  8
KIGOU
  6
Continuous
 62
   255
370
    50
100
AcDbLine
 10
6874.453488203902
 20
11108.83455527665
 30
0.0
 11
6933.905810790103
 21
11049.38223269065
 31
0.0
  0
LINE
  5
371
330
1F
100
AcDbEntity
  8
KIGOU
  6
Continuous
 62
   255
370
    50
100
AcDbLine
 10
6878.943616264402
 20
11108.83455527665
 30
0.0
 11
6937.237375292002
 21
11050.54079624865
 31
0.0
  0
LINE
  5
372
330
1F
100
AcDbEntity
  8
KIGOU
  6
Continuous
 62
   255
370
    50
100
AcDbLine
 10
6883.433744325002
 20
11108.83455527665
 30
0.0
 11
6940.502685075602
 21
11051.76561452565
 31
0.0
  0
LINE
  5
373
330
1F
100
AcDbEntity
  8
KIGOU
  6
Continuous
 62
   255
370
    50
100
AcDbLine
 10
6887.923872385502
 20
11108.83455527665
 30
0.0
 11
6943.703878940904
 21
11053.05454872065
 31
0.0
  0
LINE
  5
374
330
1F
100
AcDbEntity
  8
KIGOU
  6
Continuous
 62
   255
370
    50
100
AcDbLine
 10
6892.414000446002
 20
11108.83455527665
 30
0.0
 11
6946.842878454002
 21
11054.40567726865
 31
0.0
  0
LINE
  5
375
330
1F
100
AcDbEntity
  8
KIGOU
  6
Continuous
 62
   255
370
    50
100
AcDbLine
 10
6896.904128506603
 20
11108.83455527665
 30
0.0
 11
6949.921411296103
 21
11055.81727248665
 31
0.0
  0
LINE
  5
376
330
1F
100
AcDbEntity
  8
KIGOU
  6
Continuous
 62
   255
370
    50
100
AcDbLine
 10
6901.394256567103
 20
11108.83455527665
 30
0.0
 11
6952.941031073904
 21
11057.28778076965
 31
0.0
  0
LINE
  5
377
330
1F
100
AcDbEntity
  8
KIGOU
  6
Continuous
 62
   255
370
    50
100
AcDbLine
 10
6905.884384627601
 20
11108.83455527665
 30
0.0
 11
6955.903134192202
 21
11058.81580571165
 31
0.0
  0
LINE
  5
378
330
1F
100
AcDbEntity
  8
KIGOU
  6
Continuous
 62
   255
370
    50
100
AcDbLine
 10
6827.942574683602
 20
11108.83455527665
 30
0.0
 11
6827.942574683603
 21
11318.94702311865
 31
0.0
  0
LINE
  5
379
330
1F
100
AcDbEntity
  8
KIGOU
  6
Continuous
 62
   255
370
    50
100
AcDbLine
 10
6947.942574683603
 20
11108.83455527665
 30
0.0
 11
6947.942574683604
 21
11318.94702311865
 31
0.0
  0
LINE
  5
37A
330
1F
100
AcDbEntity
  8
KIGOU
  6
Continuous
 62
   255
370
    50
100
AcDbLine
 10
6791.356805400001
 20
12551.63096971156
 30
0.0
 11
6791.356805400001
 21
12393.23905072576
 31
0.0
  0
CIRCLE
  5
37B
330
1F
100
AcDbEntity
  8
KIGOU
  6
Continuous
 62
   255
370
    50
100
AcDbCircle
 10
6320.160845907002
 20
12472.43501021865
 30
0.0
 40
134.3999999999996
  0
LINE
  5
37C
330
1F
100
AcDbEntity
  8
KIGOU
  6
Continuous
 62
   255
370
    50
100
AcDbLine
 10
6428.748874713001
 20
12393.23905072576
 30
0.0
 11
6791.356805400001
 21
12393.23905072576
 31
0.0
  0
LINE
  5
37D
330
1F
100
AcDbEntity
  8
KIGOU
  6
Continuous
 62
   255
370
    50
100
AcDbLine
 10
6428.748874713001
 20
12551.63096971156
 30
0.0
 11
6791.356805400001
 21
12551.63096971156
 31
0.0
  0
LINE
  5
37E
330
1F
100
AcDbEntity
  8
SONOTA
  6
Continuous
 62
   255
370
    50
100
AcDbLine
 10
9459.311345906999
 20
11615.23051768566
 30
0.0
 11
9459.311345906999
 21
11309.70451768565
 31
0.0
  0
LINE
  5
37F
330
1F
100
AcDbEntity
  8
SONOTA
  6
Continuous
 62
   255
370
    50
100
AcDbLine
 10
9481.517345906999
 20
11295.44251768566
 30
0.0
 11
9481.517345906999
 21
11629.48551768565
 31
0.0
  0
LINE
  5
380
330
1F
100
AcDbEntity
  8
SONOTA
  6
Continuous
 62
   255
370
    50
100
AcDbLine
 10
7931.401345907
 20
11374.96451768565
 30
0.0
 11
7931.401345907
 21
10506.90350275065
 31
0.0
  0
LINE
  5
381
330
1F
100
AcDbEntity
  8
SONOTA
  6
Continuous
 62
   255
370
    50
100
AcDbLine
 10
7856.401345907
 20
11999.96351768565
 30
0.0
 11
7856.401345907
 21
11041.90550275066
 31
0.0
  0
LINE
  5
382
330
1F
100
AcDbEntity
  8
SONOTA
  6
Continuous
 62
   255
370
    50
100
AcDbLine
 10
7831.401345907
 20
11041.90550275066
 30
0.0
 11
7831.401345907
 21
11791.90550275166
 31
0.0
  0
CIRCLE
  5
383
330
1F
100
AcDbEntity
  8
KIGOU
  6
Continuous
 62
   255
370
    50
100
AcDbCircle
 10
9179.9913062339
 20
11224.79385397966
 30
0.0
 40
145.0179812412898
  0
LINE
  5
384
330
1F
100
AcDbEntity
  8
SONOTA
  6
Continuous
 62
   255
370
    50
100
AcDbLine
 10
8089.401345907
 20
10526.90350275065
 30
0.0
 11
8759.401345906999
 21
10526.90350275065
 31
0.0
  0
LINE
  5
385
330
1F
100
AcDbEntity
  8
SONOTA
  6
Continuous
 62
   255
370
    50
100
AcDbLine
 10
8779.401345906999
 20
10506.90350275065
 30
0.0
 11
7931.401345907
 21
10506.90350275065
 31
0.0
  0
LINE
  5
386
330
1F
100
AcDbEntity
  8
SONOTA
  6
Continuous
 62
   255
370
    50
100
AcDbLine
 10
7856.401345907
 20
10466.90350275065
 30
0.0
 11
8779.401345906999
 21
10466.90350275065
 31
0.0
  0
CIRCLE
  5
387
330
1F
100
AcDbEntity
  8
KIGOU
  6
Continuous
 62
   255
370
    50
100
AcDbCircle
 10
8400.150345907001
 20
10054.40550275066
 30
0.0
 40
145.0179812412898
  0
LINE
  5
388
330
1F
100
AcDbEntity
  8
SONOTA
  6
Continuous
 62
   255
370
    50
100
AcDbLine
 10
7856.401345907
 20
10966.90550275066
 30
0.0
 11
7856.401345907
 21
10466.90350275065
 31
0.0
  0
LINE
  5
389
330
1F
100
AcDbEntity
  8
SONOTA
  6
Continuous
 62
   255
370
    50
100
AcDbLine
 10
7831.401345907
 20
11041.90550275066
 30
0.0
 11
7831.401345907
 21
10966.90550275166
 31
0.0
  0
LINE
  5
38A
330
1F
100
AcDbEntity
  8
SONOTA
  6
Continuous
 62
   255
370
    50
100
AcDbLine
 10
7831.401345907
 20
10966.90550275166
 30
0.0
 11
7856.401345907
 21
10966.90550275166
 31
0.0
  0
LINE
  5
38B
330
1F
100
AcDbEntity
  8
SONOTA
  6
Continuous
 62
   255
370
    50
100
AcDbLine
 10
7856.401345907
 20
11041.90550275066
 30
0.0
 11
7856.423345907
 21
11041.90550275066
 31
0.0
  0
LINE
  5
38C
330
1F
100
AcDbEntity
  8
SONOTA
  6
Continuous
 62
   255
370
    50
100
AcDbLine
 10
7831.401345907
 20
11041.90550275066
 30
0.0
 11
7856.401345907
 21
11041.90550275066
 31
0.0
  0
LINE
  5
38D
330
1F
100
AcDbEntity
  8
SONOTA
  6
Continuous
 62
   255
370
    50
100
AcDbLine
 10
8759.401345906999
 20
10526.90350275065
 30
0.0
 11
9429.401345906999
 21
10526.90350275065
 31
0.0
  0
LINE
  5
38E
330
1F
100
AcDbEntity
  8
SONOTA
  6
Continuous
 62
   255
370
    50
100
AcDbLine
 10
8779.401345906999
 20
10466.90350275065
 30
0.0
 11
8779.401345906999
 21
10506.90350275065
 31
0.0
  0
LINE
  5
38F
330
1F
100
AcDbEntity
  8
SONOTA
  6
Continuous
 62
   255
370
    50
100
AcDbLine
 10
9429.401345906999
 20
10541.90550275066
 30
0.0
 11
9429.401345906999
 21
10466.90550275066
 31
0.0
  0
ARC
  5
390
330
1F
100
AcDbEntity
  8
SONOTA
  6
Continuous
 62
   255
370
    50
100
AcDbCircle
 10
9756.403345907
 20
11268.02551768565
 30
0.0
 40
300.0000400000008
100
AcDbArc
 50
172.0152200000198
 51
192.7300199996496
  0
LINE
  5
391
330
1F
100
AcDbEntity
  8
SONOTA
  6
Continuous
 62
   255
370
    50
100
AcDbLine
 10
8506.402345907
 20
12799.95851768565
 30
0.0
 11
7941.402345907
 21
12799.95851768565
 31
0.0
  0
LINE
  5
392
330
1F
100
AcDbEntity
  8
SONOTA
  6
Continuous
 62
   255
370
    50
100
AcDbLine
 10
7941.4023459069
 20
12829.95851768565
 30
0.0
 11
8506.402345907
 21
12829.95851768565
 31
0.0
  0
LINE
  5
393
330
1F
100
AcDbEntity
  8
SONOTA
  6
Continuous
 62
   255
370
    50
100
AcDbLine
 10
8648.900345906899
 20
11924.96451768565
 30
0.0
 11
8281.400345906899
 21
11924.96451768565
 31
0.0
  0
LINE
  5
394
330
1F
100
AcDbEntity
  8
SONOTA
  6
Continuous
 62
   255
370
    50
100
AcDbLine
 10
8506.398345907001
 20
11999.96451767966
 30
0.0
 11
7856.401345907
 21
11999.96351768565
 31
0.0
  0
LINE
  5
395
330
1F
100
AcDbEntity
  8
SONOTA
  6
Continuous
 62
   255
370
    50
100
AcDbLine
 10
7856.401345907
 20
11999.96351768565
 30
0.0
 11
7497.001345907
 21
12207.46351768565
 31
0.0
  0
LINE
  5
396
330
1F
100
AcDbEntity
  8
SONOTA
  6
Continuous
 62
   255
370
    50
100
AcDbLine
 10
8281.400345906899
 20
11924.96451768565
 30
0.0
 11
8281.400345906899
 21
11374.96451768565
 31
0.0
  0
LINE
  5
397
330
1F
100
AcDbEntity
  8
SONOTA
  6
Continuous
 62
   255
370
    50
100
AcDbLine
 10
7931.401345907
 20
11924.96363307065
 30
0.0
 11
7931.401345907
 21
11449.96451768565
 31
0.0
  0
LINE
  5
398
330
1F
100
AcDbEntity
  8
SONOTA
  6
Continuous
 62
   255
370
    50
100
AcDbLine
 10
8206.400345906899
 20
11924.96405614466
 30
0.0
 11
8206.400345906899
 21
11449.96451768565
 31
0.0
  0
LINE
  5
399
330
1F
100
AcDbEntity
  8
SONOTA
  6
Continuous
 62
   255
370
    50
100
AcDbLine
 10
8281.400345906899
 20
11374.96451768565
 30
0.0
 11
7931.401345907
 21
11374.96451768565
 31
0.0
  0
LINE
  5
39A
330
1F
100
AcDbEntity
  8
SONOTA
  6
Continuous
 62
   255
370
    50
100
AcDbLine
 10
8206.400345906899
 20
11449.96451768565
 30
0.0
 11
7931.401345907
 21
11449.96451768565
 31
0.0
  0
LINE
  5
39B
330
1F
100
AcDbEntity
  8
SONOTA
  6
Continuous
 62
   255
370
    50
100
AcDbLine
 10
8206.400345906899
 20
11924.96405614466
 30
0.0
 11
7931.401345907
 21
11924.96363307065
 31
0.0
  0
LINE
  5
39C
330
1F
100
AcDbEntity
  8
SONOTA
  6
Continuous
 62
   255
370
    50
100
AcDbLine
 10
7931.401345907
 20
11999.96651768565
 30
0.0
 11
7931.401345907
 21
11999.96451768565
 31
0.0
  0
LINE
  5
39D
330
1F
100
AcDbEntity
  8
SONOTA
  6
Continuous
 62
   255
370
    50
100
AcDbLine
 10
7856.401345907
 20
12414.96351768565
 30
0.0
 11
7497.001345907
 21
12207.46351768565
 31
0.0
  0
LINE
  5
39E
330
1F
100
AcDbEntity
  8
SONOTA
  6
Continuous
 62
   255
370
    50
100
AcDbLine
 10
7856.401345907
 20
12414.96351768565
 30
0.0
 11
7886.401345907
 21
12414.96351768565
 31
0.0
  0
LINE
  5
39F
330
1F
100
AcDbEntity
  8
SONOTA
  6
Continuous
 62
   255
370
    50
100
AcDbLine
 10
7941.402345907
 20
12799.95851768565
 30
0.0
 11
7941.4023459069
 21
12829.95851768565
 31
0.0
  0
LINE
  5
3A0
330
1F
100
AcDbEntity
  8
SONOTA
  6
Continuous
 62
   255
370
    50
100
AcDbLine
 10
8648.900345906899
 20
11999.96451768565
 30
0.0
 11
8648.900345906899
 21
12759.96451768565
 31
0.0
  0
LINE
  5
3A1
330
1F
100
AcDbEntity
  8
SONOTA
  6
Continuous
 62
   255
370
    50
100
AcDbLine
 10
8506.398345907001
 20
12799.95851768565
 30
0.0
 11
8506.398345907001
 21
11999.96451767966
 31
0.0
  0
LINE
  5
3A2
330
1F
100
AcDbEntity
  8
SONOTA
  6
Continuous
 62
   255
370
    50
100
AcDbLine
 10
8648.900345906899
 20
11999.96451768565
 30
0.0
 11
8648.900345906899
 21
11924.96451768565
 31
0.0
  0
LINE
  5
3A3
330
1F
100
AcDbEntity
  8
SONOTA
  6
Continuous
 62
   255
370
    50
100
AcDbLine
 10
8581.398345907001
 20
11999.96451768565
 30
0.0
 11
8648.900345906899
 21
11999.96451768565
 31
0.0
  0
ARC
  5
3A4
330
1F
100
AcDbEntity
  8
SONOTA
  6
Continuous
 62
   255
370
    50
100
AcDbCircle
 10
9756.403345907
 20
11656.90251768565
 30
0.0
 40
300.0000400000008
100
AcDbArc
 50
167.2699699999201
 51
187.9847700000097
  0
LINE
  5
3A5
330
1F
100
AcDbEntity
  8
SONOTA
  6
Continuous
 62
   255
370
    50
100
AcDbLine
 10
9406.9593459069
 20
11999.96451768565
 30
0.0
 11
9406.9593459068
 21
11924.96451768565
 31
0.0
  0
LINE
  5
3A6
330
1F
100
AcDbEntity
  8
KIGOU
  6
Continuous
 62
   255
370
    50
100
AcDbLine
 10
5848.964886414
 20
12551.63096971156
 30
0.0
 11
5848.964886414
 21
12393.23905072576
 31
0.0
  0
LINE
  5
3A7
330
1F
100
AcDbEntity
  8
SONOTA
  6
Continuous
 62
   255
370
    50
100
AcDbLine
 10
9181.398345907001
 20
14692.46451768565
 30
0.0
 11
9181.398345907001
 21
14102.96451768565
 31
0.0
  0
LINE
  5
3A8
330
1F
100
AcDbEntity
  8
SONOTA
  6
Continuous
 62
   255
370
    50
100
AcDbLine
 10
7931.401345907
 20
13902.96451768565
 30
0.0
 11
8506.398345907001
 21
13902.96451768565
 31
0.0
  0
LINE
  5
3A9
330
1F
100
AcDbEntity
  8
KIGOU
  6
Continuous
 62
   255
370
    50
100
AcDbLine
 10
7789.4722933822
 20
13820.78962699366
 30
0.0
 11
7821.26575053
 21
13852.58308414166
 31
0.0
  0
LINE
  5
3AA
330
1F
100
AcDbEntity
  8
KIGOU
  6
Continuous
 62
   255
370
    50
100
AcDbLine
 10
7789.4722933822
 20
13825.27975505466
 30
0.0
 11
7819.163300345701
 21
13854.97076201866
 31
0.0
  0
LINE
  5
3AB
330
1F
100
AcDbEntity
  8
KIGOU
  6
Continuous
 62
   255
370
    50
100
AcDbLine
 10
7789.4722933822
 20
13829.76988311566
 30
0.0
 11
7817.0114875924
 21
13857.30907732566
 31
0.0
  0
LINE
  5
3AC
330
1F
100
AcDbEntity
  8
KIGOU
  6
Continuous
 62
   255
370
    50
100
AcDbLine
 10
7789.4722933822
 20
13834.26001117566
 30
0.0
 11
7814.810446944301
 21
13859.59816473766
 31
0.0
  0
LINE
  5
3AD
330
1F
100
AcDbEntity
  8
KIGOU
  6
Continuous
 62
   255
370
    50
100
AcDbLine
 10
7789.4722933822
 20
13838.75013923666
 30
0.0
 11
7812.5602418097
 21
13861.83808766366
 31
0.0
  0
LINE
  5
3AE
330
1F
100
AcDbEntity
  8
KIGOU
  6
Continuous
 62
   255
370
    50
100
AcDbLine
 10
7789.4722933822
 20
13843.24026729666
 30
0.0
 11
7810.260864789299
 21
13864.02883870366
 31
0.0
  0
LINE
  5
3AF
330
1F
100
AcDbEntity
  8
KIGOU
  6
Continuous
 62
   255
370
    50
100
AcDbLine
 10
7789.4722933822
 20
13847.73039535766
 30
0.0
 11
7807.912237622801
 21
13866.17033959766
 31
0.0
  0
LINE
  5
3B0
330
1F
100
AcDbEntity
  8
SONOTA
  6
Continuous
 62
   255
370
    50
100
AcDbLine
 10
7931.401345907
 20
13902.96451768565
 30
0.0
 11
7931.401345907
 21
13659.96351768565
 31
0.0
  0
LINE
  5
3B1
330
1F
100
AcDbEntity
  8
SONOTA
  6
Continuous
 62
   255
370
    50
100
AcDbLine
 10
7856.401345907
 20
13902.96451768565
 30
0.0
 11
7856.401345907
 21
13659.96351768565
 31
0.0
  0
ARC
  5
3B2
330
1F
100
AcDbEntity
  8
KIGOU
  6
Continuous
 62
   255
370
    50
100
AcDbCircle
 10
7711.383364665602
 20
13757.94653644466
 30
0.0
 40
145.0179812412798
100
AcDbArc
 50
57.41994020956977
 51
302.5800597904499
  0
LINE
  5
3B3
330
1F
100
AcDbEntity
  8
KIGOU
  6
Continuous
 62
   255
370
    50
100
AcDbLine
 10
7789.4722933822
 20
13635.74860644966
 30
0.0
 11
7789.4722933822
 21
13880.14446644066
 31
0.0
  0
ARC
  5
3B4
330
1F
100
AcDbEntity
  8
KIGOU
  6
Continuous
 62
   255
370
    50
100
AcDbCircle
 10
7711.3833646657
 20
13757.94653644466
 30
0.0
 40
145.0179812412998
100
AcDbArc
 50
302.5800597903996
 51
57.41994020961009
  0
LINE
  5
3B5
330
1F
100
AcDbEntity
  8
SONOTA
  6
Continuous
 62
   255
370
    50
100
AcDbLine
 10
7856.401345907
 20
13659.96351768565
 30
0.0
 11
7931.401345907
 21
13659.96351768565
 31
0.0
  0
LINE
  5
3B6
330
1F
100
AcDbEntity
  8
SONOTA
  6
Continuous
 62
   255
370
    50
100
AcDbLine
 10
7856.401345907
 20
13257.46351768565
 30
0.0
 11
7507.826345907
 21
13458.71351768565
 31
0.0
  0
LINE
  5
3B7
330
1F
100
AcDbEntity
  8
SONOTA
  6
Continuous
 62
   255
370
    50
100
AcDbLine
 10
7856.401345907
 20
13257.46351768565
 30
0.0
 11
7886.401345907
 21
13257.46351768565
 31
0.0
  0
LINE
  5
3B8
330
1F
100
AcDbEntity
  8
KIGOU
  6
Continuous
 62
   255
370
    50
100
AcDbLine
 10
7789.4722933822
 20
13852.22052341766
 30
0.0
 11
7805.514210623301
 21
13868.26244065866
 31
0.0
  0
LINE
  5
3B9
330
1F
100
AcDbEntity
  8
KIGOU
  6
Continuous
 62
   255
370
    50
100
AcDbLine
 10
7789.4722933822
 20
13856.71065147866
 30
0.0
 11
7803.066561591
 21
13870.30491968766
 31
0.0
  0
LINE
  5
3BA
330
1F
100
AcDbEntity
  8
KIGOU
  6
Continuous
 62
   255
370
    50
100
AcDbLine
 10
7789.4722933822
 20
13861.20077953866
 30
0.0
 11
7800.568994186
 21
13872.29748034266
 31
0.0
  0
LINE
  5
3BB
330
1F
100
AcDbEntity
  8
KIGOU
  6
Continuous
 62
   255
370
    50
100
AcDbLine
 10
7789.4722933822
 20
13865.69090759966
 30
0.0
 11
7798.0211357338
 21
13874.23974995066
 31
0.0
  0
LINE
  5
3BC
330
1F
100
AcDbEntity
  8
KIGOU
  6
Continuous
 62
   255
370
    50
100
AcDbLine
 10
7789.4722933822
 20
13870.18103565966
 30
0.0
 11
7795.422534424001
 21
13876.13127670166
 31
0.0
  0
LINE
  5
3BD
330
1F
100
AcDbEntity
  8
KIGOU
  6
Continuous
 62
   255
370
    50
100
AcDbLine
 10
7789.4722933822
 20
13874.67116372066
 30
0.0
 11
7792.772655852101
 21
13877.97152619066
 31
0.0
  0
LINE
  5
3BE
330
1F
100
AcDbEntity
  8
SONOTA
  6
Continuous
 62
   255
370
    50
100
AcDbLine
 10
7856.401345907
 20
13659.96351768565
 30
0.0
 11
7507.826345907
 21
13458.71351768565
 31
0.0
  0
LINE
  5
3BF
330
1F
100
AcDbEntity
  8
KIGOU
  6
Continuous
 62
   255
370
    50
100
AcDbLine
 10
7789.4722933822
 20
13879.16129178066
 30
0.0
 11
7790.0708788423
 21
13879.75987724166
 31
0.0
  0
LINE
  5
3C0
330
1F
100
AcDbEntity
  8
KIGOU
  6
Continuous
 62
   255
370
    50
100
AcDbLine
 10
7789.4722933822
 20
13636.69437651266
 30
0.0
 11
7835.1555694248
 21
13682.37765255466
 31
0.0
  0
LINE
  5
3C1
330
1F
100
AcDbEntity
  8
KIGOU
  6
Continuous
 62
   255
370
    50
100
AcDbLine
 10
7789.4722933822
 20
13641.18450457266
 30
0.0
 11
7840.799206493999
 21
13692.51141768466
 31
0.0
  0
LINE
  5
3C2
330
1F
100
AcDbEntity
  8
KIGOU
  6
Continuous
 62
   255
370
    50
100
AcDbLine
 10
7789.4722933822
 20
13645.67463263366
 30
0.0
 11
7844.718673164601
 21
13700.92101241566
 31
0.0
  0
LINE
  5
3C3
330
1F
100
AcDbEntity
  8
KIGOU
  6
Continuous
 62
   255
370
    50
100
AcDbLine
 10
7789.4722933822
 20
13650.16476069366
 30
0.0
 11
7847.656088149201
 21
13708.34855546066
 31
0.0
  0
LINE
  5
3C4
330
1F
100
AcDbEntity
  8
KIGOU
  6
Continuous
 62
   255
370
    50
100
AcDbLine
 10
7789.4722933822
 20
13654.65488875466
 30
0.0
 11
7849.9315578298
 21
13715.11415320166
 31
0.0
  0
LINE
  5
3C5
330
1F
100
AcDbEntity
  8
KIGOU
  6
Continuous
 62
   255
370
    50
100
AcDbLine
 10
7789.4722933822
 20
13659.14501681466
 30
0.0
 11
7851.718373600402
 21
13721.39109703366
 31
0.0
  0
LINE
  5
3C6
330
1F
100
AcDbEntity
  8
KIGOU
  6
Continuous
 62
   255
370
    50
100
AcDbLine
 10
7789.4722933822
 20
13663.63514487566
 30
0.0
 11
7853.123058773002
 21
13727.28591026666
 31
0.0
  0
LINE
  5
3C7
330
1F
100
AcDbEntity
  8
KIGOU
  6
Continuous
 62
   255
370
    50
100
AcDbLine
 10
7789.4722933822
 20
13668.12527293566
 30
0.0
 11
7854.216718890801
 21
13732.86969844466
 31
0.0
  0
LINE
  5
3C8
330
1F
100
AcDbEntity
  8
KIGOU
  6
Continuous
 62
   255
370
    50
100
AcDbLine
 10
7789.4722933822
 20
13672.61540099666
 30
0.0
 11
7855.049656308699
 21
13738.19276392266
 31
0.0
  0
LINE
  5
3C9
330
1F
100
AcDbEntity
  8
KIGOU
  6
Continuous
 62
   255
370
    50
100
AcDbLine
 10
7789.4722933822
 20
13677.10552905666
 30
0.0
 11
7855.659028549003
 21
13743.29226422366
 31
0.0
  0
LINE
  5
3CA
330
1F
100
AcDbEntity
  8
KIGOU
  6
Continuous
 62
   255
370
    50
100
AcDbLine
 10
7789.4722933822
 20
13681.59565711766
 30
0.0
 11
7856.073216549601
 21
13748.19658028466
 31
0.0
  0
LINE
  5
3CB
330
1F
100
AcDbEntity
  8
KIGOU
  6
Continuous
 62
   255
370
    50
100
AcDbLine
 10
7789.4722933822
 20
13686.08578517766
 30
0.0
 11
7856.314482502001
 21
13752.92797429766
 31
0.0
  0
LINE
  5
3CC
330
1F
100
AcDbEntity
  8
KIGOU
  6
Continuous
 62
   255
370
    50
100
AcDbLine
 10
7789.4722933822
 20
13690.57591323866
 30
0.0
 11
7856.400671573002
 21
13757.50429142966
 31
0.0
  0
LINE
  5
3CD
330
1F
100
AcDbEntity
  8
KIGOU
  6
Continuous
 62
   255
370
    50
100
AcDbLine
 10
7789.4722933822
 20
13695.06604129966
 30
0.0
 11
7856.3463474255
 21
13761.94009534266
 31
0.0
  0
LINE
  5
3CE
330
1F
100
AcDbEntity
  8
KIGOU
  6
Continuous
 62
   255
370
    50
100
AcDbLine
 10
7789.4722933822
 20
13699.55616935966
 30
0.0
 11
7856.1635762959
 21
13766.24745227366
 31
0.0
  0
LINE
  5
3CF
330
1F
100
AcDbEntity
  8
KIGOU
  6
Continuous
 62
   255
370
    50
100
AcDbLine
 10
7789.4722933822
 20
13704.04629742066
 30
0.0
 11
7855.862484219399
 21
13770.43648825766
 31
0.0
  0
LINE
  5
3D0
330
1F
100
AcDbEntity
  8
KIGOU
  6
Continuous
 62
   255
370
    50
100
AcDbLine
 10
7789.4722933822
 20
13708.53642548066
 30
0.0
 11
7855.4516628942
 21
13774.51579499266
 31
0.0
  0
LINE
  5
3D1
330
1F
100
AcDbEntity
  8
KIGOU
  6
Continuous
 62
   255
370
    50
100
AcDbLine
 10
7789.4722933822
 20
13713.02655354166
 30
0.0
 11
7854.9384716441
 21
13778.49273180366
 31
0.0
  0
LINE
  5
3D2
330
1F
100
AcDbEntity
  8
KIGOU
  6
Continuous
 62
   255
370
    50
100
AcDbLine
 10
7789.4722933822
 20
13717.51668160166
 30
0.0
 11
7854.329266275499
 21
13782.37365449566
 31
0.0
  0
LINE
  5
3D3
330
1F
100
AcDbEntity
  8
KIGOU
  6
Continuous
 62
   255
370
    50
100
AcDbLine
 10
7789.4722933822
 20
13722.00680966266
 30
0.0
 11
7853.6295753752
 21
13786.16409165566
 31
0.0
  0
LINE
  5
3D4
330
1F
100
AcDbEntity
  8
KIGOU
  6
Continuous
 62
   255
370
    50
100
AcDbLine
 10
7789.4722933822
 20
13726.49693772266
 30
0.0
 11
7852.844238090202
 21
13789.86888243066
 31
0.0
  0
LINE
  5
3D5
330
1F
100
AcDbEntity
  8
KIGOU
  6
Continuous
 62
   255
370
    50
100
AcDbLine
 10
7789.4722933822
 20
13730.98706578366
 30
0.0
 11
7851.977513194601
 21
13793.49228559566
 31
0.0
  0
LINE
  5
3D6
330
1F
100
AcDbEntity
  8
KIGOU
  6
Continuous
 62
   255
370
    50
100
AcDbLine
 10
7789.4722933822
 20
13735.47719384366
 30
0.0
 11
7851.033166423799
 21
13797.03806688566
 31
0.0
  0
LINE
  5
3D7
330
1F
100
AcDbEntity
  8
KIGOU
  6
Continuous
 62
   255
370
    50
100
AcDbLine
 10
7789.4722933822
 20
13739.96732190466
 30
0.0
 11
7850.0145411289
 21
13800.50956965166
 31
0.0
  0
LINE
  5
3D8
330
1F
100
AcDbEntity
  8
KIGOU
  6
Continuous
 62
   255
370
    50
100
AcDbLine
 10
7789.4722933822
 20
13744.45744996466
 30
0.0
 11
7848.924615968399
 21
13803.90977255166
 31
0.0
  0
LINE
  5
3D9
330
1F
100
AcDbEntity
  8
KIGOU
  6
Continuous
 62
   255
370
    50
100
AcDbLine
 10
7789.4722933822
 20
13748.94757802566
 30
0.0
 11
7847.7660524097
 21
13807.24133705266
 31
0.0
  0
LINE
  5
3DA
330
1F
100
AcDbEntity
  8
KIGOU
  6
Continuous
 62
   255
370
    50
100
AcDbLine
 10
7789.4722933822
 20
13753.43770608566
 30
0.0
 11
7846.541234132799
 21
13810.50664683666
 31
0.0
  0
LINE
  5
3DB
330
1F
100
AcDbEntity
  8
KIGOU
  6
Continuous
 62
   255
370
    50
100
AcDbLine
 10
7789.4722933822
 20
13757.92783414666
 30
0.0
 11
7845.252299937602
 21
13813.70784070166
 31
0.0
  0
LINE
  5
3DC
330
1F
100
AcDbEntity
  8
KIGOU
  6
Continuous
 62
   255
370
    50
100
AcDbLine
 10
7789.4722933822
 20
13762.41796220766
 30
0.0
 11
7843.901171390099
 21
13816.84684021466
 31
0.0
  0
LINE
  5
3DD
330
1F
100
AcDbEntity
  8
KIGOU
  6
Continuous
 62
   255
370
    50
100
AcDbLine
 10
7789.4722933822
 20
13766.90809026766
 30
0.0
 11
7842.489576171699
 21
13819.92537305766
 31
0.0
  0
LINE
  5
3DE
330
1F
100
AcDbEntity
  8
KIGOU
  6
Continuous
 62
   255
370
    50
100
AcDbLine
 10
7789.4722933822
 20
13771.39821832866
 30
0.0
 11
7841.019067888899
 21
13822.94499283466
 31
0.0
  0
LINE
  5
3DF
330
1F
100
AcDbEntity
  8
KIGOU
  6
Continuous
 62
   255
370
    50
100
AcDbLine
 10
7789.4722933822
 20
13775.88834638866
 30
0.0
 11
7839.491042946801
 21
13825.90709595366
 31
0.0
  0
LINE
  5
3E0
330
1F
100
AcDbEntity
  8
KIGOU
  6
Continuous
 62
   255
370
    50
100
AcDbLine
 10
7789.4722933822
 20
13780.37847444966
 30
0.0
 11
7837.906754964999
 21
13828.81293603166
 31
0.0
  0
LINE
  5
3E1
330
1F
100
AcDbEntity
  8
KIGOU
  6
Continuous
 62
   255
370
    50
100
AcDbLine
 10
7789.4722933822
 20
13784.86860250966
 30
0.0
 11
7836.2673271242
 21
13831.66363625166
 31
0.0
  0
LINE
  5
3E2
330
1F
100
AcDbEntity
  8
KIGOU
  6
Continuous
 62
   255
370
    50
100
AcDbLine
 10
7789.4722933822
 20
13789.35873057066
 30
0.0
 11
7834.5737627548
 21
13834.46019994266
 31
0.0
  0
LINE
  5
3E3
330
1F
100
AcDbEntity
  8
KIGOU
  6
Continuous
 62
   255
370
    50
100
AcDbLine
 10
7789.4722933822
 20
13793.84885863066
 30
0.0
 11
7832.826954422802
 21
13837.20351967166
 31
0.0
  0
LINE
  5
3E4
330
1F
100
AcDbEntity
  8
KIGOU
  6
Continuous
 62
   255
370
    50
100
AcDbLine
 10
7789.4722933822
 20
13798.33898669166
 30
0.0
 11
7831.0276917185
 21
13839.89438502766
 31
0.0
  0
LINE
  5
3E5
330
1F
100
AcDbEntity
  8
KIGOU
  6
Continuous
 62
   255
370
    50
100
AcDbLine
 10
7789.4722933822
 20
13802.82911475166
 30
0.0
 11
7829.176667920299
 21
13842.53348928966
 31
0.0
  0
LINE
  5
3E6
330
1F
100
AcDbEntity
  8
KIGOU
  6
Continuous
 62
   255
370
    50
100
AcDbLine
 10
7789.4722933822
 20
13807.31924281266
 30
0.0
 11
7827.2744856701
 21
13845.12143510066
 31
0.0
  0
LINE
  5
3E7
330
1F
100
AcDbEntity
  8
KIGOU
  6
Continuous
 62
   255
370
    50
100
AcDbLine
 10
7789.4722933822
 20
13811.80937087266
 30
0.0
 11
7825.321661775301
 21
13847.65873926666
 31
0.0
  0
LINE
  5
3E8
330
1F
100
AcDbEntity
  8
KIGOU
  6
Continuous
 62
   255
370
    50
100
AcDbLine
 10
7789.4722933822
 20
13816.29949893366
 30
0.0
 11
7823.318631229801
 21
13850.14583678166
 31
0.0
  0
LINE
  5
3E9
330
1F
100
AcDbEntity
  8
KIGOU
  6
Continuous
 62
   255
370
    50
100
AcDbLine
 10
7801.971298266901
 20
13644.70325333666
 30
0.0
 11
7824.626647773998
 21
13667.35860284366
 31
0.0
  0
LINE
  5
3EA
330
1F
100
AcDbEntity
  8
KIGOU
  6
Continuous
 62
   255
370
    50
100
AcDbLine
 10
7789.4722933822
 20
13697.94653644466
 30
0.0
 11
7579.359825539898
 21
13697.94653644466
 31
0.0
  0
LINE
  5
3EB
330
1F
100
AcDbEntity
  8
KIGOU
  6
Continuous
 62
   255
370
    50
100
AcDbLine
 10
7789.4722933822
 20
13817.94653644466
 30
0.0
 11
7579.359825539898
 21
13817.94653644466
 31
0.0
  0
ARC
  5
3EC
330
1F
100
AcDbEntity
  8
SONOTA
  6
Continuous
 62
   255
370
    50
100
AcDbCircle
 10
8834.3963459069
 20
13622.93251768566
 30
0.0
 40
50.0
100
AcDbArc
 50
94.93356299970321
 51
175.6481900001499
  0
ARC
  5
3ED
330
1F
100
AcDbEntity
  8
SONOTA
  6
Continuous
 62
   255
370
    50
100
AcDbCircle
 10
10719.0003459074
 20
13474.96551768565
 30
0.0
 40
2000.0
100
AcDbArc
 50
173.99356999994
 51
186.0228799999695
  0
ARC
  5
3EE
330
1F
100
AcDbEntity
  8
SONOTA
  6
Continuous
 62
   255
370
    50
100
AcDbCircle
 10
8652.320345906999
 20
11277.30951768566
 30
0.0
 40
2000.0
100
AcDbArc
 50
76.818983999376
 51
81.46122700066697
  0
LINE
  5
3EF
330
1F
100
AcDbEntity
  8
SONOTA
  6
Continuous
 62
   255
370
    50
100
AcDbLine
 10
8581.398345907001
 20
13022.46551768565
 30
0.0
 11
9230.025345906899
 21
13022.46551768565
 31
0.0
  0
ARC
  5
3F0
330
1F
100
AcDbEntity
  8
SONOTA
  6
Continuous
 62
   255
370
    50
100
AcDbCircle
 10
9086.116930159
 20
14176.49244150866
 30
0.0
 40
1025.787786078799
100
AcDbArc
 50
251.4767247590597
 51
264.9427979774097
  0
ARC
  5
3F1
330
1F
100
AcDbEntity
  8
SONOTA
  6
Continuous
 62
   255
370
    50
100
AcDbCircle
 10
8835.587345906901
 20
13324.54851768566
 30
0.0
 40
51.0
100
AcDbArc
 50
184.4262800000093
 51
260.7540099994998
  0
ARC
  5
3F2
330
1F
100
AcDbEntity
  8
SONOTA
  6
Continuous
 62
   255
370
    50
100
AcDbCircle
 10
8764.864345906901
 20
13233.48651768566
 30
0.0
 40
30.0
100
AcDbArc
 50
190.3066099999907
 51
261.1222500007311
  0
ARC
  5
3F3
330
1F
100
AcDbEntity
  8
SONOTA
  6
Continuous
 62
   255
370
    50
100
AcDbCircle
 10
9227.280345907
 20
13317.57751768566
 30
0.0
 40
500.0
100
AcDbArc
 50
186.0228799999695
 51
190.3066099999496
  0
ARC
  5
3F4
330
1F
100
AcDbEntity
  8
SONOTA
  6
Continuous
 62
   255
370
    50
100
AcDbCircle
 10
10434.1263459074
 20
23144.28851768566
 30
0.0
 40
10000.0
100
AcDbArc
 50
260.7540099994697
 51
261.4608600003397
  0
ARC
  5
3F5
330
1F
100
AcDbEntity
  8
SONOTA
  6
Continuous
 62
   255
370
    50
100
AcDbCircle
 10
10778.7743459074
 20
13474.96551768565
 30
0.0
 40
2000.0
100
AcDbArc
 50
175.64819000003
 51
184.4262799999997
  0
ARC
  5
3F6
330
1F
100
AcDbEntity
  8
SONOTA
  6
Continuous
 62
   255
370
    50
100
AcDbCircle
 10
9306.0323459069
 20
13419.96551768565
 30
0.0
 40
250.0
100
AcDbArc
 50
245.4454299999794
 51
260.0871999996795
  0
ARC
  5
3F7
330
1F
100
AcDbEntity
  8
SONOTA
  6
Continuous
 62
   255
370
    50
100
AcDbCircle
 10
9328.900345906899
 20
15122.46551768565
 30
0.0
 40
2000.0
100
AcDbArc
 50
266.8418099995596
 51
268.0404199998497
  0
ARC
  5
3F8
330
1F
100
AcDbEntity
  8
SONOTA
  6
Continuous
 62
   255
370
    50
100
AcDbCircle
 10
8994.363345906901
 20
12737.79151768566
 30
0.0
 40
500.0
100
AcDbArc
 50
67.64541599957293
 51
76.81898399937799
  0
ARC
  5
3F9
330
1F
100
AcDbEntity
  8
SONOTA
  6
Continuous
 62
   255
370
    50
100
AcDbCircle
 10
8994.3633459066
 20
12737.79151768566
 30
0.0
 40
500.0
100
AcDbArc
 50
65.44543400015598
 51
67.64541599952695
  0
ARC
  5
3FA
330
1F
100
AcDbEntity
  8
SONOTA
  6
Continuous
 62
   255
370
    50
100
AcDbCircle
 10
9301.354345907001
 20
14623.22551768565
 30
0.0
 40
1500.0
100
AcDbArc
 50
258.2422600007296
 51
266.8418099995596
  0
ARC
  5
3FB
330
1F
100
AcDbEntity
  8
SONOTA
  6
Continuous
 62
   255
370
    50
100
AcDbCircle
 10
9351.7693459068
 20
13419.96551768565
 30
0.0
 40
250.0
100
AcDbArc
 50
279.9127799999397
 51
294.5545500004998
  0
ARC
  5
3FC
330
1F
100
AcDbEntity
  8
SONOTA
  6
Continuous
 62
   255
370
    50
100
AcDbCircle
 10
9336.9213459072
 20
13226.66951768565
 30
0.0
 40
70.0
100
AcDbArc
 50
270.0579300006891
 51
298.5361000003099
  0
ARC
  5
3FD
330
1F
100
AcDbEntity
  8
SONOTA
  6
Continuous
 62
   255
370
    50
100
AcDbCircle
 10
9328.900345906701
 20
21156.66551768566
 30
0.0
 40
8000.000000000002
100
AcDbArc
 50
269.9420400003297
 51
270.0579300008496
  0
ARC
  5
3FE
330
1F
100
AcDbEntity
  8
SONOTA
  6
Continuous
 62
   255
370
    50
100
AcDbCircle
 10
9408.578345906701
 20
13094.89251768565
 30
0.0
 40
80.0
100
AcDbArc
 50
99.91277999974223
 51
118.5361000003002
  0
ARC
  5
3FF
330
1F
100
AcDbEntity
  8
SONOTA
  6
Continuous
 62
   255
370
    50
100
AcDbCircle
 10
9249.223345907099
 20
13094.89251768565
 30
0.0
 40
80.0
100
AcDbArc
 50
61.4638819997738
 51
80.08720299942874
  0
ARC
  5
400
330
1F
100
AcDbEntity
  8
SONOTA
  6
Continuous
 62
   255
370
    50
100
AcDbCircle
 10
9320.8803459068
 20
13226.66951768565
 30
0.0
 40
70.0
100
AcDbArc
 50
241.4638800009395
 51
269.9420400004799
  0
ARC
  5
401
330
1F
100
AcDbEntity
  8
SONOTA
  6
Continuous
 62
   255
370
    50
100
AcDbCircle
 10
9260.067345908099
 20
13110.64251768565
 30
0.0
 40
13.0
100
AcDbArc
 50
59.98582400411552
 51
88.04042000461746
  0
ARC
  5
402
330
1F
100
AcDbEntity
  8
SONOTA
  6
Continuous
 62
   255
370
    50
100
AcDbCircle
 10
9328.900345906799
 20
15122.46551768565
 30
0.0
 40
2000.0
100
AcDbArc
 50
271.9595599998097
 51
273.1581699997597
  0
ARC
  5
403
330
1F
100
AcDbEntity
  8
SONOTA
  6
Continuous
 62
   255
370
    50
100
AcDbCircle
 10
9356.216345907
 20
13182.51251768566
 30
0.0
 40
70.0
100
AcDbArc
 50
270.1973500001291
 51
300.0141600007601
  0
ARC
  5
404
330
1F
100
AcDbEntity
  8
SONOTA
  6
Continuous
 62
   255
370
    50
100
AcDbCircle
 10
9328.900345906899
 20
21112.46551768565
 30
0.0
 40
8000.0
100
AcDbArc
 50
269.8026199992097
 51
270.1973500001296
  0
ARC
  5
405
330
1F
100
AcDbEntity
  8
SONOTA
  6
Continuous
 62
   255
370
    50
100
AcDbCircle
 10
9397.734345906601
 20
13110.64251768565
 30
0.0
 40
13.0
100
AcDbArc
 50
91.95956399811037
 51
120.01415999952
  0
ARC
  5
406
330
1F
100
AcDbEntity
  8
SONOTA
  6
Continuous
 62
   255
370
    50
100
AcDbCircle
 10
9301.5853459069
 20
13182.51251768566
 30
0.0
 40
70.0
100
AcDbArc
 50
239.9858200001389
 51
269.8026199993199
  0
ARC
  5
407
330
1F
100
AcDbEntity
  8
SONOTA
  6
Continuous
 62
   255
370
    50
100
AcDbCircle
 10
9328.900345906799
 20
7894.235517685956
 30
0.0
 40
5800.0
100
AcDbArc
 50
92.10516300028201
 51
94.933562999684
  0
ARC
  5
408
330
1F
100
AcDbEntity
  8
SONOTA
  6
Continuous
 62
   255
370
    50
100
AcDbCircle
 10
8763.8063459069
 20
13716.03351768566
 30
0.0
 40
29.0
100
AcDbArc
 50
98.00894100012685
 51
169.7133099997011
  0
ARC
  5
409
330
1F
100
AcDbEntity
  8
SONOTA
  6
Continuous
 62
   255
370
    50
100
AcDbCircle
 10
9227.235345907
 20
13631.92551768566
 30
0.0
 40
500.0
100
AcDbArc
 50
169.71330999955
 51
173.9935699999301
  0
ARC
  5
40A
330
1F
100
AcDbEntity
  8
SONOTA
  6
Continuous
 62
   255
370
    50
100
AcDbCircle
 10
9310.3873459069
 20
13583.54251768566
 30
0.0
 40
150.0
100
AcDbArc
 50
90.14494300029213
 51
113.5943400008401
  0
ARC
  5
40B
330
1F
100
AcDbEntity
  8
SONOTA
  6
Continuous
 62
   255
370
    50
100
AcDbCircle
 10
9102.2533459069
 20
14060.07151768565
 30
0.0
 40
370.0
100
AcDbArc
 50
272.1051600000496
 51
293.5943400008896
  0
ARC
  5
40C
330
1F
100
AcDbEntity
  8
SONOTA
  6
Continuous
 62
   255
370
    50
100
AcDbCircle
 10
9347.414345907
 20
13583.54251768566
 30
0.0
 40
150.0
100
AcDbArc
 50
66.4056390003729
 51
89.8550409997037
  0
ARC
  5
40D
330
1F
100
AcDbEntity
  8
SONOTA
  6
Continuous
 62
   255
370
    50
100
AcDbCircle
 10
9328.900345906899
 20
6265.917417685955
 30
0.0
 40
7467.6489
100
AcDbArc
 50
89.855040999701
 51
90.14494300033002
  0
LINE
  5
40E
330
1F
100
AcDbEntity
  8
SONOTA
  6
Continuous
 62
   255
370
    50
100
AcDbLine
 10
9878.900345906899
 20
12884.47151768566
 30
0.0
 11
9878.900345906899
 21
13022.46551768565
 31
0.0
  0
LINE
  5
40F
330
1F
100
AcDbEntity
  8
SONOTA
  6
Continuous
 62
   255
370
    50
100
AcDbLine
 10
10131.4023459074
 20
13902.96451768565
 30
0.0
 11
10131.4023459074
 21
10437.46101768566
 31
0.0
  0
LINE
  5
410
330
1F
100
AcDbEntity
  8
SONOTA
  6
Continuous
 62
   255
370
    50
100
AcDbLine
 10
10056.4023459074
 20
13902.96451768565
 30
0.0
 11
10056.4023459074
 21
11999.96451768565
 31
0.0
  0
LINE
  5
411
330
1F
100
AcDbEntity
  8
SONOTA
  6
Continuous
 62
   255
370
    50
100
AcDbLine
 10
10056.4023459074
 20
11924.96451768565
 30
0.0
 11
10056.4023459074
 21
10541.90550275066
 31
0.0
  0
LINE
  5
412
330
1F
100
AcDbEntity
  8
SONOTA
  6
Continuous
 62
   255
370
    50
100
AcDbLine
 10
9891.405345907
 20
11012.47251768565
 30
0.0
 11
9891.4053459069
 21
11924.96451768565
 31
0.0
  0
LINE
  5
413
330
1F
100
AcDbEntity
  8
SONOTA
  6
Continuous
 62
   255
370
    50
100
AcDbLine
 10
9581.4243459069
 20
11095.80251768565
 30
0.0
 11
9581.4243459069
 21
10541.90550275066
 31
0.0
  0
LINE
  5
414
330
1F
100
AcDbEntity
  8
SONOTA
  6
Continuous
 62
   255
370
    50
100
AcDbLine
 10
10056.4023459074
 20
10437.46101768566
 30
0.0
 11
10131.4023459074
 21
10437.46101768566
 31
0.0
  0
LINE
  5
415
330
1F
100
AcDbEntity
  8
KIGOU
  6
Continuous
 62
   255
370
    50
100
AcDbLine
 10
9878.885384627703
 20
9708.834555275755
 30
0.0
 11
9928.904134192302
 21
9658.815805711154
 31
0.0
  0
LINE
  5
416
330
1F
100
AcDbEntity
  8
KIGOU
  6
Continuous
 62
   255
370
    50
100
AcDbLine
 10
9883.375512688202
 20
9708.834555275755
 30
0.0
 11
9931.809974271002
 21
9660.400093692953
 31
0.0
  0
LINE
  5
417
330
1F
100
AcDbEntity
  8
KIGOU
  6
Continuous
 62
   255
370
    50
100
AcDbLine
 10
9887.865640748703
 20
9708.834555275755
 30
0.0
 11
9934.660674490702
 21
9662.03952153375
 31
0.0
  0
LINE
  5
418
330
1F
100
AcDbEntity
  8
KIGOU
  6
Continuous
 62
   255
370
    50
100
AcDbLine
 10
9892.355768809302
 20
9708.834555275755
 30
0.0
 11
9937.457238181898
 21
9663.733085903054
 31
0.0
  0
LINE
  5
419
330
1F
100
AcDbEntity
  8
KIGOU
  6
Continuous
 62
   255
370
    50
100
AcDbLine
 10
9896.845896869803
 20
9708.834555275755
 30
0.0
 11
9940.200557910403
 21
9665.479894235155
 31
0.0
  0
LINE
  5
41A
330
1F
100
AcDbEntity
  8
KIGOU
  6
Continuous
 62
   255
370
    50
100
AcDbLine
 10
9901.336024930304
 20
9708.834555275755
 30
0.0
 11
9942.891423266603
 21
9667.279156939454
 31
0.0
  0
LINE
  5
41B
330
1F
100
AcDbEntity
  8
KIGOU
  6
Continuous
 62
   255
370
    50
100
AcDbLine
 10
9905.826152990903
 20
9708.834555275755
 30
0.0
 11
9945.530527529003
 21
9669.130180737655
 31
0.0
  0
LINE
  5
41C
330
1F
100
AcDbEntity
  8
KIGOU
  6
Continuous
 62
   255
370
    50
100
AcDbLine
 10
9910.316281051402
 20
9708.834555275755
 30
0.0
 11
9948.118473339302
 21
9671.032362987853
 31
0.0
  0
LINE
  5
41D
330
1F
100
AcDbEntity
  8
KIGOU
  6
Continuous
 62
   255
370
    50
100
AcDbLine
 10
9914.806409111903
 20
9708.834555275755
 30
0.0
 11
9950.655777505002
 21
9672.985186882655
 31
0.0
  0
LINE
  5
41E
330
1F
100
AcDbEntity
  8
KIGOU
  6
Continuous
 62
   255
370
    50
100
AcDbLine
 10
9919.296537172502
 20
9708.834555275755
 30
0.0
 11
9953.142875020003
 21
9674.988217428154
 31
0.0
  0
LINE
  5
41F
330
1F
100
AcDbEntity
  8
KIGOU
  6
Continuous
 62
   255
370
    50
100
AcDbLine
 10
9923.786665233003
 20
9708.834555275755
 30
0.0
 11
9955.580122380903
 21
9677.041098127853
 31
0.0
  0
LINE
  5
420
330
1F
100
AcDbEntity
  8
KIGOU
  6
Continuous
 62
   255
370
    50
100
AcDbLine
 10
9738.745644688002
 20
9708.834555275755
 30
0.0
 11
9983.141504679203
 21
9708.834555275755
 31
0.0
  0
ARC
  5
421
330
1F
100
AcDbEntity
  8
KIGOU
  6
Continuous
 62
   255
370
    50
100
AcDbCircle
 10
9860.943574683703
 20
9786.923483992354
 30
0.0
 40
145.0179812413007
100
AcDbArc
 50
212.5800597897775
 51
327.4199402101895
  0
LINE
  5
422
330
1F
100
AcDbEntity
  8
KIGOU
  6
Continuous
 62
   255
370
    50
100
AcDbLine
 10
9928.276793293502
 20
9708.834555275755
 30
0.0
 11
9957.967800257002
 21
9679.143548312255
 31
0.0
  0
LINE
  5
423
330
1F
100
AcDbEntity
  8
KIGOU
  6
Continuous
 62
   255
370
    50
100
AcDbLine
 10
9932.766921354103
 20
9708.834555275755
 30
0.0
 11
9960.306115564303
 21
9681.295361065555
 31
0.0
  0
LINE
  5
424
330
1F
100
AcDbEntity
  8
KIGOU
  6
Continuous
 62
   255
370
    50
100
AcDbLine
 10
9937.257049414602
 20
9708.834555275755
 30
0.0
 11
9962.595202976698
 21
9683.496401713655
 31
0.0
  0
LINE
  5
425
330
1F
100
AcDbEntity
  8
KIGOU
  6
Continuous
 62
   255
370
    50
100
AcDbLine
 10
9941.747177475103
 20
9708.834555275755
 30
0.0
 11
9964.835125902604
 21
9685.74660684825
 31
0.0
  0
LINE
  5
426
330
1F
100
AcDbEntity
  8
KIGOU
  6
Continuous
 62
   255
370
    50
100
AcDbLine
 10
9946.237305535702
 20
9708.834555275755
 30
0.0
 11
9967.025876942804
 21
9688.045983868655
 31
0.0
  0
LINE
  5
427
330
1F
100
AcDbEntity
  8
KIGOU
  6
Continuous
 62
   255
370
    50
100
AcDbLine
 10
9950.727433596203
 20
9708.834555275755
 30
0.0
 11
9969.167377836802
 21
9690.394611035155
 31
0.0
  0
LINE
  5
428
330
1F
100
AcDbEntity
  8
KIGOU
  6
Continuous
 62
   255
370
    50
100
AcDbLine
 10
9955.217561656702
 20
9708.834555275755
 30
0.0
 11
9971.259478897904
 21
9692.792638034654
 31
0.0
  0
LINE
  5
429
330
1F
100
AcDbEntity
  8
KIGOU
  6
Continuous
 62
   255
370
    50
100
AcDbLine
 10
9959.707689717303
 20
9708.834555275755
 30
0.0
 11
9973.301957926104
 21
9695.240287066952
 31
0.0
  0
LINE
  5
42A
330
1F
100
AcDbEntity
  8
KIGOU
  6
Continuous
 62
   255
370
    50
100
AcDbLine
 10
9964.197817777804
 20
9708.834555275755
 30
0.0
 11
9975.294518581603
 21
9697.737854471954
 31
0.0
  0
LINE
  5
42B
330
1F
100
AcDbEntity
  8
KIGOU
  6
Continuous
 62
   255
370
    50
100
AcDbLine
 10
9968.687945838303
 20
9708.834555275755
 30
0.0
 11
9977.236788190003
 21
9700.285712924155
 31
0.0
  0
LINE
  5
42C
330
1F
100
AcDbEntity
  8
KIGOU
  6
Continuous
 62
   255
370
    50
100
AcDbLine
 10
9973.178073898904
 20
9708.834555275755
 30
0.0
 11
9979.128314940703
 21
9702.884314233956
 31
0.0
  0
LINE
  5
42D
330
1F
100
AcDbEntity
  8
KIGOU
  6
Continuous
 62
   255
370
    50
100
AcDbLine
 10
9977.668201959403
 20
9708.834555275755
 30
0.0
 11
9980.968564429402
 21
9705.534192805855
 31
0.0
  0
LINE
  5
42E
330
1F
100
AcDbEntity
  8
KIGOU
  6
Continuous
 62
   255
370
    50
100
AcDbLine
 10
9982.158330020004
 20
9708.834555275755
 30
0.0
 11
9982.756915480102
 21
9708.235969815654
 31
0.0
  0
LINE
  5
42F
330
1F
100
AcDbEntity
  8
KIGOU
  6
Continuous
 62
   255
370
    50
100
AcDbLine
 10
9747.700291575304
 20
9696.335550391055
 30
0.0
 11
9770.355641082402
 21
9673.680200883955
 31
0.0
  0
LINE
  5
430
330
1F
100
AcDbEntity
  8
KIGOU
  6
Continuous
 62
   255
370
    50
100
AcDbLine
 10
9739.691414751103
 20
9708.834555275755
 30
0.0
 11
9785.374690793602
 21
9663.151279233254
 31
0.0
  0
LINE
  5
431
330
1F
100
AcDbEntity
  8
KIGOU
  6
Continuous
 62
   255
370
    50
100
AcDbLine
 10
9744.181542811602
 20
9708.834555275755
 30
0.0
 11
9795.508455923502
 21
9657.507642163955
 31
0.0
  0
LINE
  5
432
330
1F
100
AcDbEntity
  8
KIGOU
  6
Continuous
 62
   255
370
    50
100
AcDbLine
 10
9748.671670872203
 20
9708.834555275755
 30
0.0
 11
9803.918050654602
 21
9653.588175493354
 31
0.0
  0
LINE
  5
433
330
1F
100
AcDbEntity
  8
KIGOU
  6
Continuous
 62
   255
370
    50
100
AcDbLine
 10
9753.161798932701
 20
9708.834555275755
 30
0.0
 11
9811.345593699703
 21
9650.650760508755
 31
0.0
  0
LINE
  5
434
330
1F
100
AcDbEntity
  8
KIGOU
  6
Continuous
 62
   255
370
    50
100
AcDbLine
 10
9757.651926993203
 20
9708.834555275755
 30
0.0
 11
9818.111191440803
 21
9648.375290828155
 31
0.0
  0
LINE
  5
435
330
1F
100
AcDbEntity
  8
KIGOU
  6
Continuous
 62
   255
370
    50
100
AcDbLine
 10
9762.142055053802
 20
9708.834555275755
 30
0.0
 11
9824.388135272002
 21
9646.588475057555
 31
0.0
  0
LINE
  5
436
330
1F
100
AcDbEntity
  8
KIGOU
  6
Continuous
 62
   255
370
    50
100
AcDbLine
 10
9766.632183114303
 20
9708.834555275755
 30
0.0
 11
9830.282948505103
 21
9645.183789884955
 31
0.0
  0
LINE
  5
437
330
1F
100
AcDbEntity
  8
KIGOU
  6
Continuous
 62
   255
370
    50
100
AcDbLine
 10
9771.122311174799
 20
9708.834555275755
 30
0.0
 11
9835.866736683503
 21
9644.090129767155
 31
0.0
  0
LINE
  5
438
330
1F
100
AcDbEntity
  8
KIGOU
  6
Continuous
 62
   255
370
    50
100
AcDbLine
 10
9775.612439235403
 20
9708.834555275755
 30
0.0
 11
9841.189802161902
 21
9643.257192349254
 31
0.0
  0
LINE
  5
439
330
1F
100
AcDbEntity
  8
KIGOU
  6
Continuous
 62
   255
370
    50
100
AcDbLine
 10
9780.102567295902
 20
9708.834555275755
 30
0.0
 11
9846.289302462703
 21
9642.647820108956
 31
0.0
  0
LINE
  5
43A
330
1F
100
AcDbEntity
  8
KIGOU
  6
Continuous
 62
   255
370
    50
100
AcDbLine
 10
9784.592695356403
 20
9708.834555275755
 30
0.0
 11
9851.193618523803
 21
9642.233632108355
 31
0.0
  0
LINE
  5
43B
330
1F
100
AcDbEntity
  8
KIGOU
  6
Continuous
 62
   255
370
    50
100
AcDbLine
 10
9789.082823417002
 20
9708.834555275755
 30
0.0
 11
9855.925012536702
 21
9641.992366155955
 31
0.0
  0
LINE
  5
43C
330
1F
100
AcDbEntity
  8
KIGOU
  6
Continuous
 62
   255
370
    50
100
AcDbLine
 10
9793.572951477503
 20
9708.834555275755
 30
0.0
 11
9860.501329668303
 21
9641.906177084955
 31
0.0
  0
LINE
  5
43D
330
1F
100
AcDbEntity
  8
KIGOU
  6
Continuous
 62
   255
370
    50
100
AcDbLine
 10
9798.063079538002
 20
9708.834555275755
 30
0.0
 11
9864.937133581403
 21
9641.960501232456
 31
0.0
  0
LINE
  5
43E
330
1F
100
AcDbEntity
  8
KIGOU
  6
Continuous
 62
   255
370
    50
100
AcDbLine
 10
9802.553207598603
 20
9708.834555275755
 30
0.0
 11
9869.244490512303
 21
9642.143272362055
 31
0.0
  0
LINE
  5
43F
330
1F
100
AcDbEntity
  8
KIGOU
  6
Continuous
 62
   255
370
    50
100
AcDbLine
 10
9807.043335659104
 20
9708.834555275755
 30
0.0
 11
9873.433526496303
 21
9642.444364438554
 31
0.0
  0
LINE
  5
440
330
1F
100
AcDbEntity
  8
KIGOU
  6
Continuous
 62
   255
370
    50
100
AcDbLine
 10
9811.533463719603
 20
9708.834555275755
 30
0.0
 11
9877.512833231702
 21
9642.855185763754
 31
0.0
  0
LINE
  5
441
330
1F
100
AcDbEntity
  8
KIGOU
  6
Continuous
 62
   255
370
    50
100
AcDbLine
 10
9816.023591780204
 20
9708.834555275755
 30
0.0
 11
9881.489770042103
 21
9643.368377013854
 31
0.0
  0
LINE
  5
442
330
1F
100
AcDbEntity
  8
KIGOU
  6
Continuous
 62
   255
370
    50
100
AcDbLine
 10
9820.513719840703
 20
9708.834555275755
 30
0.0
 11
9885.370692734003
 21
9643.977582382455
 31
0.0
  0
LINE
  5
443
330
1F
100
AcDbEntity
  8
KIGOU
  6
Continuous
 62
   255
370
    50
100
AcDbLine
 10
9825.003847901204
 20
9708.834555275755
 30
0.0
 11
9889.161129894303
 21
9644.677273282754
 31
0.0
  0
LINE
  5
444
330
1F
100
AcDbEntity
  8
KIGOU
  6
Continuous
 62
   255
370
    50
100
AcDbLine
 10
9829.493975961803
 20
9708.834555275755
 30
0.0
 11
9892.865920669803
 21
9645.462610567754
 31
0.0
  0
LINE
  5
445
330
1F
100
AcDbEntity
  8
KIGOU
  6
Continuous
 62
   255
370
    50
100
AcDbLine
 10
9833.984104022304
 20
9708.834555275755
 30
0.0
 11
9896.489323834803
 21
9646.329335463355
 31
0.0
  0
LINE
  5
446
330
1F
100
AcDbEntity
  8
KIGOU
  6
Continuous
 62
   255
370
    50
100
AcDbLine
 10
9838.474232082803
 20
9708.834555275755
 30
0.0
 11
9900.035105124503
 21
9647.273682234154
 31
0.0
  0
LINE
  5
447
330
1F
100
AcDbEntity
  8
KIGOU
  6
Continuous
 62
   255
370
    50
100
AcDbLine
 10
9842.964360143398
 20
9708.834555275755
 30
0.0
 11
9903.506607890104
 21
9648.292307529055
 31
0.0
  0
LINE
  5
448
330
1F
100
AcDbEntity
  8
KIGOU
  6
Continuous
 62
   255
370
    50
100
AcDbLine
 10
9847.454488203903
 20
9708.834555275755
 30
0.0
 11
9906.906810790104
 21
9649.382232689555
 31
0.0
  0
LINE
  5
449
330
1F
100
AcDbEntity
  8
KIGOU
  6
Continuous
 62
   255
370
    50
100
AcDbLine
 10
9851.944616264402
 20
9708.834555275755
 30
0.0
 11
9910.238375292003
 21
9650.540796248255
 31
0.0
  0
LINE
  5
44A
330
1F
100
AcDbEntity
  8
KIGOU
  6
Continuous
 62
   255
370
    50
100
AcDbLine
 10
9856.434744325003
 20
9708.834555275755
 30
0.0
 11
9913.503685075602
 21
9651.765614525155
 31
0.0
  0
LINE
  5
44B
330
1F
100
AcDbEntity
  8
KIGOU
  6
Continuous
 62
   255
370
    50
100
AcDbLine
 10
9860.924872385502
 20
9708.834555275755
 30
0.0
 11
9916.704878940898
 21
9653.054548720354
 31
0.0
  0
LINE
  5
44C
330
1F
100
AcDbEntity
  8
KIGOU
  6
Continuous
 62
   255
370
    50
100
AcDbLine
 10
9865.415000446103
 20
9708.834555275755
 30
0.0
 11
9919.843878454003
 21
9654.405677267854
 31
0.0
  0
LINE
  5
44D
330
1F
100
AcDbEntity
  8
KIGOU
  6
Continuous
 62
   255
370
    50
100
AcDbLine
 10
9869.905128506603
 20
9708.834555275755
 30
0.0
 11
9922.922411296102
 21
9655.817272486254
 31
0.0
  0
LINE
  5
44E
330
1F
100
AcDbEntity
  8
KIGOU
  6
Continuous
 62
   255
370
    50
100
AcDbLine
 10
9874.395256567103
 20
9708.834555275755
 30
0.0
 11
9925.942031073901
 21
9657.287780769055
 31
0.0
  0
LINE
  5
44F
330
1F
100
AcDbEntity
  8
SONOTA
  6
Continuous
 62
   255
370
    50
100
AcDbLine
 10
10056.4023459074
 20
10466.90550275066
 30
0.0
 11
10056.4023459074
 21
10437.46101768566
 31
0.0
  0
LINE
  5
450
330
1F
100
AcDbEntity
  8
SONOTA
  6
Continuous
 62
   255
370
    50
100
AcDbLine
 10
9797.638345907002
 20
11192.47051768566
 30
0.0
 11
9630.417345906901
 21
11192.47051768566
 31
0.0
  0
LINE
  5
451
330
1F
100
AcDbEntity
  8
SONOTA
  6
Continuous
 62
   255
370
    50
100
AcDbLine
 10
10056.4023459074
 20
11012.47251768565
 30
0.0
 11
9581.4243459069
 21
11012.47251768565
 31
0.0
  0
LINE
  5
452
330
1F
100
AcDbEntity
  8
SONOTA
  6
Continuous
 62
   255
370
    50
100
AcDbLine
 10
9891.405345907
 20
11102.46451768565
 30
0.0
 11
9577.8593459069
 21
11102.46451768565
 31
0.0
  0
ARC
  5
453
330
1F
100
AcDbEntity
  8
SONOTA
  6
Continuous
 62
   255
370
    50
100
AcDbCircle
 10
9630.417345906901
 20
11692.46651768565
 30
0.0
 40
500.0000500000006
100
AcDbArc
 50
262.9783400005096
 51
270.0000100001497
  0
ARC
  5
454
330
1F
100
AcDbEntity
  8
SONOTA
  6
Continuous
 62
   255
370
    50
100
AcDbCircle
 10
9573.4253459067
 20
11095.80251768565
 30
0.0
 40
7.999999100000423
100
AcDbArc
 50
0.0
 51
78.92780999831972
  0
ARC
  5
455
330
1F
100
AcDbEntity
  8
SONOTA
  6
Continuous
 62
   255
370
    50
100
AcDbCircle
 10
9632.5743459069
 20
11398.07151768565
 30
0.0
 40
300.0000400000008
100
AcDbArc
 50
254.4656900005396
 51
258.9277899999196
  0
ARC
  5
456
330
1F
100
AcDbEntity
  8
SONOTA
  6
Continuous
 62
   255
370
    50
100
AcDbCircle
 10
9649.186345906999
 20
11381.00051768565
 30
0.0
 40
250.0000199999995
100
AcDbArc
 50
314.9839699992696
 51
327.3665299993596
  0
ARC
  5
457
330
1F
100
AcDbEntity
  8
SONOTA
  6
Continuous
 62
   255
370
    50
100
AcDbCircle
 10
9797.6383459069
 20
11232.46151768566
 30
0.0
 40
40.0000029999992
100
AcDbArc
 50
270.0000000000492
 51
314.9839699993398
  0
ARC
  5
458
330
1F
100
AcDbEntity
  8
SONOTA
  6
Continuous
 62
   255
370
    50
100
AcDbCircle
 10
9438.650345906899
 20
11515.81651768566
 30
0.0
 40
500.0000500000006
100
AcDbArc
 50
327.3665299993596
 51
334.8916100001096
  0
ARC
  5
459
330
1F
100
AcDbEntity
  8
KIGOU
  6
Continuous
 62
   255
370
    50
100
AcDbCircle
 10
10276.4203271484
 20
10816.58819131765
 30
0.0
 40
145.0179812412807
100
AcDbArc
 50
237.4199402095927
 51
122.5800597904105
  0
LINE
  5
45A
330
1F
100
AcDbEntity
  8
KIGOU
  6
Continuous
 62
   255
370
    50
100
AcDbLine
 10
10198.3313984324
 20
10876.58819131765
 30
0.0
 11
10408.4438662744
 21
10876.58819131765
 31
0.0
  0
LINE
  5
45B
330
1F
100
AcDbEntity
  8
KIGOU
  6
Continuous
 62
   255
370
    50
100
AcDbLine
 10
10198.3313984324
 20
10756.58819131765
 30
0.0
 11
10408.4438662744
 21
10756.58819131765
 31
0.0
  0
LINE
  5
45C
330
1F
100
AcDbEntity
  8
KIGOU
  6
Continuous
 62
   255
370
    50
100
AcDbLine
 10
10185.8323935474
 20
10929.83147442565
 30
0.0
 11
10163.1770440404
 21
10907.17612491865
 31
0.0
  0
LINE
  5
45D
330
1F
100
AcDbEntity
  8
KIGOU
  6
Continuous
 62
   255
370
    50
100
AcDbLine
 10
10198.3313984324
 20
10937.84035124965
 30
0.0
 11
10152.6481223894
 21
10892.15707520765
 31
0.0
  0
LINE
  5
45E
330
1F
100
AcDbEntity
  8
KIGOU
  6
Continuous
 62
   255
370
    50
100
AcDbLine
 10
10198.3313984324
 20
10933.35022318965
 30
0.0
 11
10147.0044853204
 21
10882.02331007765
 31
0.0
  0
LINE
  5
45F
330
1F
100
AcDbEntity
  8
KIGOU
  6
Continuous
 62
   255
370
    50
100
AcDbLine
 10
10198.3313984324
 20
10928.86009512865
 30
0.0
 11
10143.0850186494
 21
10873.61371534665
 31
0.0
  0
LINE
  5
460
330
1F
100
AcDbEntity
  8
KIGOU
  6
Continuous
 62
   255
370
    50
100
AcDbLine
 10
10198.3313984324
 20
10924.36996706865
 30
0.0
 11
10140.1476036654
 21
10866.18617230165
 31
0.0
  0
LINE
  5
461
330
1F
100
AcDbEntity
  8
KIGOU
  6
Continuous
 62
   255
370
    50
100
AcDbLine
 10
10198.3313984324
 20
10919.87983900765
 30
0.0
 11
10137.8721339844
 21
10859.42057455965
 31
0.0
  0
LINE
  5
462
330
1F
100
AcDbEntity
  8
KIGOU
  6
Continuous
 62
   255
370
    50
100
AcDbLine
 10
10198.3313984324
 20
10915.38971094765
 30
0.0
 11
10136.0853182134
 21
10853.14363072865
 31
0.0
  0
LINE
  5
463
330
1F
100
AcDbEntity
  8
KIGOU
  6
Continuous
 62
   255
370
    50
100
AcDbLine
 10
10198.3313984324
 20
10910.89958288665
 30
0.0
 11
10134.6806330414
 21
10847.24881749565
 31
0.0
  0
LINE
  5
464
330
1F
100
AcDbEntity
  8
KIGOU
  6
Continuous
 62
   255
370
    50
100
AcDbLine
 10
10198.3313984324
 20
10906.40945482665
 30
0.0
 11
10133.5869729234
 21
10841.66502931765
 31
0.0
  0
LINE
  5
465
330
1F
100
AcDbEntity
  8
KIGOU
  6
Continuous
 62
   255
370
    50
100
AcDbLine
 10
10198.3313984324
 20
10901.91932676565
 30
0.0
 11
10132.7540355054
 21
10836.34196383865
 31
0.0
  0
LINE
  5
466
330
1F
100
AcDbEntity
  8
KIGOU
  6
Continuous
 62
   255
370
    50
100
AcDbLine
 10
10198.3313984324
 20
10897.42919870465
 30
0.0
 11
10132.1446632654
 21
10831.24246353865
 31
0.0
  0
LINE
  5
467
330
1F
100
AcDbEntity
  8
KIGOU
  6
Continuous
 62
   255
370
    50
100
AcDbLine
 10
10198.3313984324
 20
10892.93907064465
 30
0.0
 11
10131.7304752644
 21
10826.33814747765
 31
0.0
  0
LINE
  5
468
330
1F
100
AcDbEntity
  8
KIGOU
  6
Continuous
 62
   255
370
    50
100
AcDbLine
 10
10198.3313984324
 20
10888.44894258365
 30
0.0
 11
10131.4892093124
 21
10821.60675346465
 31
0.0
  0
LINE
  5
469
330
1F
100
AcDbEntity
  8
KIGOU
  6
Continuous
 62
   255
370
    50
100
AcDbLine
 10
10198.3313984324
 20
10883.95881452365
 30
0.0
 11
10131.4030202414
 21
10817.03043633265
 31
0.0
  0
LINE
  5
46A
330
1F
100
AcDbEntity
  8
KIGOU
  6
Continuous
 62
   255
370
    50
100
AcDbLine
 10
10198.3313984324
 20
10879.46868646265
 30
0.0
 11
10131.4573443884
 21
10812.59463241965
 31
0.0
  0
LINE
  5
46B
330
1F
100
AcDbEntity
  8
KIGOU
  6
Continuous
 62
   255
370
    50
100
AcDbLine
 10
10198.3313984324
 20
10874.97855840265
 30
0.0
 11
10131.6401155184
 21
10808.28727548865
 31
0.0
  0
LINE
  5
46C
330
1F
100
AcDbEntity
  8
KIGOU
  6
Continuous
 62
   255
370
    50
100
AcDbLine
 10
10198.3313984324
 20
10870.48843034165
 30
0.0
 11
10131.9412075944
 21
10804.09823950465
 31
0.0
  0
LINE
  5
46D
330
1F
100
AcDbEntity
  8
KIGOU
  6
Continuous
 62
   255
370
    50
100
AcDbLine
 10
10198.3313984324
 20
10865.99830228165
 30
0.0
 11
10132.3520289204
 21
10800.01893276965
 31
0.0
  0
LINE
  5
46E
330
1F
100
AcDbEntity
  8
KIGOU
  6
Continuous
 62
   255
370
    50
100
AcDbLine
 10
10198.3313984324
 20
10861.50817422065
 30
0.0
 11
10132.8652201704
 21
10796.04199595865
 31
0.0
  0
LINE
  5
46F
330
1F
100
AcDbEntity
  8
KIGOU
  6
Continuous
 62
   255
370
    50
100
AcDbLine
 10
10198.3313984324
 20
10857.01804616065
 30
0.0
 11
10133.4744255384
 21
10792.16107326665
 31
0.0
  0
LINE
  5
470
330
1F
100
AcDbEntity
  8
KIGOU
  6
Continuous
 62
   255
370
    50
100
AcDbLine
 10
10198.3313984324
 20
10852.52791809965
 30
0.0
 11
10134.1741164394
 21
10788.37063610665
 31
0.0
  0
LINE
  5
471
330
1F
100
AcDbEntity
  8
KIGOU
  6
Continuous
 62
   255
370
    50
100
AcDbLine
 10
10198.3313984324
 20
10848.03779003965
 30
0.0
 11
10134.9594537244
 21
10784.66584533165
 31
0.0
  0
LINE
  5
472
330
1F
100
AcDbEntity
  8
KIGOU
  6
Continuous
 62
   255
370
    50
100
AcDbLine
 10
10198.3313984324
 20
10843.54766197865
 30
0.0
 11
10135.8261786194
 21
10781.04244216665
 31
0.0
  0
LINE
  5
473
330
1F
100
AcDbEntity
  8
KIGOU
  6
Continuous
 62
   255
370
    50
100
AcDbLine
 10
10198.3313984324
 20
10839.05753391865
 30
0.0
 11
10136.7705253904
 21
10777.49666087665
 31
0.0
  0
LINE
  5
474
330
1F
100
AcDbEntity
  8
KIGOU
  6
Continuous
 62
   255
370
    50
100
AcDbLine
 10
10198.3313984324
 20
10834.56740585765
 30
0.0
 11
10137.7891506854
 21
10774.02515811065
 31
0.0
  0
LINE
  5
475
330
1F
100
AcDbEntity
  8
KIGOU
  6
Continuous
 62
   255
370
    50
100
AcDbLine
 10
10198.3313984324
 20
10830.07727779665
 30
0.0
 11
10138.8790758454
 21
10770.62495521065
 31
0.0
  0
LINE
  5
476
330
1F
100
AcDbEntity
  8
KIGOU
  6
Continuous
 62
   255
370
    50
100
AcDbLine
 10
10198.3313984324
 20
10825.58714973665
 30
0.0
 11
10140.0376394044
 21
10767.29339070865
 31
0.0
  0
LINE
  5
477
330
1F
100
AcDbEntity
  8
KIGOU
  6
Continuous
 62
   255
370
    50
100
AcDbLine
 10
10198.3313984324
 20
10821.09702167565
 30
0.0
 11
10141.2624576814
 21
10764.02808092565
 31
0.0
  0
LINE
  5
478
330
1F
100
AcDbEntity
  8
KIGOU
  6
Continuous
 62
   255
370
    50
100
AcDbLine
 10
10198.3313984324
 20
10816.60689361565
 30
0.0
 11
10142.5513918764
 21
10760.82688705965
 31
0.0
  0
LINE
  5
479
330
1F
100
AcDbEntity
  8
KIGOU
  6
Continuous
 62
   255
370
    50
100
AcDbLine
 10
10198.3313984324
 20
10812.11676555465
 30
0.0
 11
10143.9025204244
 21
10757.68788754665
 31
0.0
  0
LINE
  5
47A
330
1F
100
AcDbEntity
  8
KIGOU
  6
Continuous
 62
   255
370
    50
100
AcDbLine
 10
10198.3313984324
 20
10807.62663749465
 30
0.0
 11
10145.3141156424
 21
10754.60935470465
 31
0.0
  0
LINE
  5
47B
330
1F
100
AcDbEntity
  8
KIGOU
  6
Continuous
 62
   255
370
    50
100
AcDbLine
 10
10198.3313984324
 20
10803.13650943365
 30
0.0
 11
10146.7846239254
 21
10751.58973492665
 31
0.0
  0
LINE
  5
47C
330
1F
100
AcDbEntity
  8
KIGOU
  6
Continuous
 62
   255
370
    50
100
AcDbLine
 10
10198.3313984324
 20
10798.64638137365
 30
0.0
 11
10148.3126488674
 21
10748.62763180865
 31
0.0
  0
LINE
  5
47D
330
1F
100
AcDbEntity
  8
KIGOU
  6
Continuous
 62
   255
370
    50
100
AcDbLine
 10
10198.3313984324
 20
10794.15625331265
 30
0.0
 11
10149.8969368494
 21
10745.72179172965
 31
0.0
  0
LINE
  5
47E
330
1F
100
AcDbEntity
  8
KIGOU
  6
Continuous
 62
   255
370
    50
100
AcDbLine
 10
10198.3313984324
 20
10789.66612525265
 30
0.0
 11
10151.5363646904
 21
10742.87109151065
 31
0.0
  0
LINE
  5
47F
330
1F
100
AcDbEntity
  8
KIGOU
  6
Continuous
 62
   255
370
    50
100
AcDbLine
 10
10198.3313984324
 20
10785.17599719165
 30
0.0
 11
10153.2299290594
 21
10740.07452781865
 31
0.0
  0
LINE
  5
480
330
1F
100
AcDbEntity
  8
KIGOU
  6
Continuous
 62
   255
370
    50
100
AcDbLine
 10
10198.3313984324
 20
10780.68586913165
 30
0.0
 11
10154.9767373914
 21
10737.33120809065
 31
0.0
  0
LINE
  5
481
330
1F
100
AcDbEntity
  8
KIGOU
  6
Continuous
 62
   255
370
    50
100
AcDbLine
 10
10198.3313984324
 20
10776.19574107065
 30
0.0
 11
10156.7760000954
 21
10734.64034273465
 31
0.0
  0
LINE
  5
482
330
1F
100
AcDbEntity
  8
KIGOU
  6
Continuous
 62
   255
370
    50
100
AcDbLine
 10
10198.3313984324
 20
10771.70561300965
 30
0.0
 11
10158.6270238944
 21
10732.00123847165
 31
0.0
  0
LINE
  5
483
330
1F
100
AcDbEntity
  8
KIGOU
  6
Continuous
 62
   255
370
    50
100
AcDbLine
 10
10198.3313984324
 20
10767.21548494965
 30
0.0
 11
10160.5292061444
 21
10729.41329266165
 31
0.0
  0
LINE
  5
484
330
1F
100
AcDbEntity
  8
KIGOU
  6
Continuous
 62
   255
370
    50
100
AcDbLine
 10
10198.3313984324
 20
10762.72535688865
 30
0.0
 11
10162.4820300394
 21
10726.87598849565
 31
0.0
  0
LINE
  5
485
330
1F
100
AcDbEntity
  8
KIGOU
  6
Continuous
 62
   255
370
    50
100
AcDbLine
 10
10198.3313984324
 20
10758.23522882865
 30
0.0
 11
10164.4850605844
 21
10724.38889098065
 31
0.0
  0
LINE
  5
486
330
1F
100
AcDbEntity
  8
KIGOU
  6
Continuous
 62
   255
370
    50
100
AcDbLine
 10
10198.3313984324
 20
10753.74510076765
 30
0.0
 11
10166.5379412844
 21
10721.95164361965
 31
0.0
  0
LINE
  5
487
330
1F
100
AcDbEntity
  8
KIGOU
  6
Continuous
 62
   255
370
    50
100
AcDbLine
 10
10198.3313984324
 20
10749.25497270765
 30
0.0
 11
10168.6403914684
 21
10719.56396574365
 31
0.0
  0
LINE
  5
488
330
1F
100
AcDbEntity
  8
KIGOU
  6
Continuous
 62
   255
370
    50
100
AcDbLine
 10
10198.3313984324
 20
10744.76484464665
 30
0.0
 11
10170.7922042214
 21
10717.22565043665
 31
0.0
  0
LINE
  5
489
330
1F
100
AcDbEntity
  8
KIGOU
  6
Continuous
 62
   255
370
    50
100
AcDbLine
 10
10198.3313984324
 20
10740.27471658665
 30
0.0
 11
10172.9932448704
 21
10714.93656302465
 31
0.0
  0
LINE
  5
48A
330
1F
100
AcDbEntity
  8
KIGOU
  6
Continuous
 62
   255
370
    50
100
AcDbLine
 10
10198.3313984324
 20
10735.78458852565
 30
0.0
 11
10175.2434500044
 21
10712.69664009865
 31
0.0
  0
LINE
  5
48B
330
1F
100
AcDbEntity
  8
KIGOU
  6
Continuous
 62
   255
370
    50
100
AcDbLine
 10
10198.3313984324
 20
10731.29446046565
 30
0.0
 11
10177.5428270254
 21
10710.50588905865
 31
0.0
  0
LINE
  5
48C
330
1F
100
AcDbEntity
  8
KIGOU
  6
Continuous
 62
   255
370
    50
100
AcDbLine
 10
10198.3313984324
 20
10726.80433240465
 30
0.0
 11
10179.8914541914
 21
10708.36438816465
 31
0.0
  0
LINE
  5
48D
330
1F
100
AcDbEntity
  8
KIGOU
  6
Continuous
 62
   255
370
    50
100
AcDbLine
 10
10198.3313984324
 20
10722.31420434465
 30
0.0
 11
10182.2894811914
 21
10706.27228710265
 31
0.0
  0
LINE
  5
48E
330
1F
100
AcDbEntity
  8
KIGOU
  6
Continuous
 62
   255
370
    50
100
AcDbLine
 10
10198.3313984324
 20
10717.82407628365
 30
0.0
 11
10184.7371302234
 21
10704.22980807465
 31
0.0
  0
LINE
  5
48F
330
1F
100
AcDbEntity
  8
KIGOU
  6
Continuous
 62
   255
370
    50
100
AcDbLine
 10
10198.3313984324
 20
10713.33394822365
 30
0.0
 11
10187.2346976284
 21
10702.23724741965
 31
0.0
  0
LINE
  5
490
330
1F
100
AcDbEntity
  8
KIGOU
  6
Continuous
 62
   255
370
    50
100
AcDbLine
 10
10198.3313984324
 20
10708.84382016265
 30
0.0
 11
10189.7825560804
 21
10700.29497781065
 31
0.0
  0
LINE
  5
491
330
1F
100
AcDbEntity
  8
KIGOU
  6
Continuous
 62
   255
370
    50
100
AcDbLine
 10
10198.3313984324
 20
10704.35369210165
 30
0.0
 11
10192.3811573904
 21
10698.40345106065
 31
0.0
  0
LINE
  5
492
330
1F
100
AcDbEntity
  8
KIGOU
  6
Continuous
 62
   255
370
    50
100
AcDbLine
 10
10198.3313984324
 20
10699.86356404165
 30
0.0
 11
10195.0310359624
 21
10696.56320157165
 31
0.0
  0
LINE
  5
493
330
1F
100
AcDbEntity
  8
KIGOU
  6
Continuous
 62
   255
370
    50
100
AcDbLine
 10
10198.3313984324
 20
10695.37343598065
 30
0.0
 11
10197.7328129714
 21
10694.77485052065
 31
0.0
  0
LINE
  5
494
330
1F
100
AcDbEntity
  8
KIGOU
  6
Continuous
 62
   255
370
    50
100
AcDbLine
 10
10198.3313984324
 20
10938.78612131265
 30
0.0
 11
10198.3313984324
 21
10694.39026132165
 31
0.0
  0
ARC
  5
495
330
1F
100
AcDbEntity
  8
KIGOU
  6
Continuous
 62
   255
370
    50
100
AcDbCircle
 10
10276.4203271484
 20
10816.58819131765
 30
0.0
 40
145.0179812413007
100
AcDbArc
 50
122.5800597904003
 51
237.4199402096026
  0
LINE
  5
496
330
1F
100
AcDbEntity
  8
SONOTA
  6
Continuous
 62
   255
370
    50
100
AcDbLine
 10
9878.900345906899
 20
12163.45951768566
 30
0.0
 11
9878.900345906899
 21
11999.96451768565
 31
0.0
  0
LINE
  5
497
330
1F
100
AcDbEntity
  8
SONOTA
  6
Continuous
 62
   255
370
    50
100
AcDbLine
 10
9797.634345906999
 20
11732.46451768565
 30
0.0
 11
9630.417345906901
 21
11732.46451768565
 31
0.0
  0
ARC
  5
498
330
1F
100
AcDbEntity
  8
SONOTA
  6
Continuous
 62
   255
370
    50
100
AcDbCircle
 10
9630.417345906801
 20
11232.46151768566
 30
0.0
 40
500.0000500000006
100
AcDbArc
 50
89.99999999998896
 51
97.02166700056107
  0
ARC
  5
499
330
1F
100
AcDbEntity
  8
SONOTA
  6
Continuous
 62
   255
370
    50
100
AcDbCircle
 10
9797.634345906999
 20
11692.46651768565
 30
0.0
 40
40.0000029999992
100
AcDbArc
 50
45.01626499946936
 51
90.00000000000522
  0
LINE
  5
49A
330
1F
100
AcDbEntity
  8
SONOTA
  6
Continuous
 62
   255
370
    50
100
AcDbLine
 10
9891.405345907
 20
11822.46351768565
 30
0.0
 11
9577.8593459069
 21
11822.46351768565
 31
0.0
  0
ARC
  5
49B
330
1F
100
AcDbEntity
  8
SONOTA
  6
Continuous
 62
   255
370
    50
100
AcDbCircle
 10
9573.425345907001
 20
11829.12451768666
 30
0.0
 40
7.999999100000423
100
AcDbArc
 50
281.0722000000646
 51
0.0
  0
ARC
  5
49C
330
1F
100
AcDbEntity
  8
SONOTA
  6
Continuous
 62
   255
370
    50
100
AcDbCircle
 10
9632.5743459071
 20
11526.85651768565
 30
0.0
 40
300.0000400000008
100
AcDbArc
 50
101.07221000013
 51
105.5343300000901
  0
LINE
  5
49D
330
1F
100
AcDbEntity
  8
SONOTA
  6
Continuous
 62
   255
370
    50
100
AcDbLine
 10
9581.4243459069
 20
11828.94951768565
 30
0.0
 11
9581.424345907
 21
11924.96451768565
 31
0.0
  0
ARC
  5
49E
330
1F
100
AcDbEntity
  8
SONOTA
  6
Continuous
 62
   255
370
    50
100
AcDbCircle
 10
10242.1903459064
 20
12523.96551768565
 30
0.0
 40
506.1893299999993
100
AcDbArc
 50
136.75448000092
 51
223.2454900008096
  0
ARC
  5
49F
330
1F
100
AcDbEntity
  8
SONOTA
  6
Continuous
 62
   255
370
    50
100
AcDbCircle
 10
9858.900345907201
 20
12163.45951768566
 30
0.0
 40
20.0
100
AcDbArc
 50
0.000000001010938
 51
43.24549800046202
  0
ARC
  5
4A0
330
1F
100
AcDbEntity
  8
SONOTA
  6
Continuous
 62
   255
370
    50
100
AcDbCircle
 10
9858.900345906899
 20
12884.47151768566
 30
0.0
 40
20.0
100
AcDbArc
 50
316.7544800007996
 51
0.0
  0
LINE
  5
4A1
330
1F
100
AcDbEntity
  8
KIGOU
  6
Continuous
 62
   255
370
    50
100
AcDbLine
 10
12247.29398646841
 20
11686.07426169866
 30
0.0
 11
11884.68605578139
 21
11686.07426169866
 31
0.0
  0
LINE
  5
4A2
330
1F
100
AcDbEntity
  8
KIGOU
  6
Continuous
 62
   255
370
    50
100
AcDbLine
 10
12247.29398646841
 20
11844.46618068366
 30
0.0
 11
11884.68605578139
 21
11844.46618068366
 31
0.0
  0
LINE
  5
4A3
330
1F
100
AcDbEntity
  8
KIGOU
  6
Continuous
 62
   255
370
    50
100
AcDbLine
 10
11884.68605578139
 20
11686.07426169866
 30
0.0
 11
11884.68605578139
 21
11844.46618068366
 31
0.0
  0
LINE
  5
4A4
330
1F
100
AcDbEntity
  8
KIGOU
  6
Continuous
 62
   255
370
    50
100
AcDbLine
 10
12464.4700440804
 20
11686.07426169866
 30
0.0
 11
12827.0779747674
 21
11686.07426169866
 31
0.0
  0
LINE
  5
4A5
330
1F
100
AcDbEntity
  8
KIGOU
  6
Continuous
 62
   255
370
    50
100
AcDbLine
 10
12464.4700440804
 20
11844.46618068366
 30
0.0
 11
12827.0779747674
 21
11844.46618068366
 31
0.0
  0
CIRCLE
  5
4A6
330
1F
100
AcDbEntity
  8
KIGOU
  6
Continuous
 62
   255
370
    50
100
AcDbCircle
 10
12355.8820152744
 20
11765.27022119066
 30
0.0
 40
134.3999999999996
  0
LINE
  5
4A7
330
1F
100
AcDbEntity
  8
KIGOU
  6
Continuous
 62
   255
370
    50
100
AcDbLine
 10
12827.0779747674
 20
11686.07426169866
 30
0.0
 11
12827.0779747674
 21
11844.46618068366
 31
0.0
  0
LINE
  5
4A8
330
1F
100
AcDbEntity
  8
SONOTA
  6
Continuous
 62
   255
370
    50
100
AcDbLine
 10
10006.3983459064
 20
14102.96451768565
 30
0.0
 11
10006.3983459064
 21
14692.46451768565
 31
0.0
  0
ARC
  5
4A9
330
1F
100
AcDbEntity
  8
SONOTA
  6
Continuous
 62
   255
370
    50
100
AcDbCircle
 10
9825.2703459069
 20
13624.77851768565
 30
0.0
 40
48.0
100
AcDbArc
 50
4.401672299963799
 51
85.04949899961584
  0
ARC
  5
4AA
330
1F
100
AcDbEntity
  8
SONOTA
  6
Continuous
 62
   255
370
    50
100
AcDbCircle
 10
7938.801345907
 20
13474.96551768565
 30
0.0
 40
1999.999999999999
100
AcDbArc
 50
353.9770900000796
 51
6.006408599936218
  0
ARC
  5
4AB
330
1F
100
AcDbEntity
  8
SONOTA
  6
Continuous
 62
   255
370
    50
100
AcDbCircle
 10
9822.214345906999
 20
13324.54851768566
 30
0.0
 40
51.0
100
AcDbArc
 50
279.24597000055
 51
355.57369000001
  0
ARC
  5
4AC
330
1F
100
AcDbEntity
  8
SONOTA
  6
Continuous
 62
   255
370
    50
100
AcDbCircle
 10
8223.675345907001
 20
23144.28851768566
 30
0.0
 40
10000.0
100
AcDbArc
 50
278.5391199993697
 51
279.2459700005796
  0
ARC
  5
4AD
330
1F
100
AcDbEntity
  8
SONOTA
  6
Continuous
 62
   255
370
    50
100
AcDbCircle
 10
10005.4813459064
 20
11277.30951768566
 30
0.0
 40
2000.0
100
AcDbArc
 50
98.538757000465
 51
103.1809899993
  0
ARC
  5
4AE
330
1F
100
AcDbEntity
  8
SONOTA
  6
Continuous
 62
   255
370
    50
100
AcDbCircle
 10
9430.521345907
 20
13317.57751768566
 30
0.0
 40
500.0
100
AcDbArc
 50
349.6933700001196
 51
353.9770900000996
  0
ARC
  5
4AF
330
1F
100
AcDbEntity
  8
SONOTA
  6
Continuous
 62
   255
370
    50
100
AcDbCircle
 10
9892.937345906999
 20
13233.48651768566
 30
0.0
 40
30.0
100
AcDbArc
 50
278.8777299994711
 51
349.6933699998994
  0
ARC
  5
4B0
330
1F
100
AcDbEntity
  8
SONOTA
  6
Continuous
 62
   255
370
    50
100
AcDbCircle
 10
7879.027345907001
 20
13474.96551768565
 30
0.0
 40
2000.0
100
AcDbArc
 50
355.5736900000997
 51
4.401672299985089
  0
LINE
  5
4B1
330
1F
100
AcDbEntity
  8
KIGOU
  6
Continuous
 62
   255
370
    50
100
AcDbLine
 10
10198.3313984324
 20
13297.91235376866
 30
0.0
 11
10133.4744255384
 21
13233.05538087566
 31
0.0
  0
LINE
  5
4B2
330
1F
100
AcDbEntity
  8
KIGOU
  6
Continuous
 62
   255
370
    50
100
AcDbLine
 10
10198.3313984324
 20
13293.42222570866
 30
0.0
 11
10134.1741164394
 21
13229.26494371566
 31
0.0
  0
LINE
  5
4B3
330
1F
100
AcDbEntity
  8
KIGOU
  6
Continuous
 62
   255
370
    50
100
AcDbLine
 10
10198.3313984324
 20
13288.93209764766
 30
0.0
 11
10134.9594537244
 21
13225.56015293966
 31
0.0
  0
LINE
  5
4B4
330
1F
100
AcDbEntity
  8
KIGOU
  6
Continuous
 62
   255
370
    50
100
AcDbLine
 10
10198.3313984324
 20
13284.44196958766
 30
0.0
 11
10135.8261786194
 21
13221.93674977466
 31
0.0
  0
LINE
  5
4B5
330
1F
100
AcDbEntity
  8
KIGOU
  6
Continuous
 62
   255
370
    50
100
AcDbLine
 10
10198.3313984324
 20
13279.95184152666
 30
0.0
 11
10136.7705253904
 21
13218.39096848566
 31
0.0
  0
LINE
  5
4B6
330
1F
100
AcDbEntity
  8
KIGOU
  6
Continuous
 62
   255
370
    50
100
AcDbLine
 10
10198.3313984324
 20
13275.46171346666
 30
0.0
 11
10137.7891506854
 21
13214.91946571966
 31
0.0
  0
LINE
  5
4B7
330
1F
100
AcDbEntity
  8
KIGOU
  6
Continuous
 62
   255
370
    50
100
AcDbLine
 10
10198.3313984324
 20
13270.97158540566
 30
0.0
 11
10138.8790758454
 21
13211.51926281966
 31
0.0
  0
LINE
  5
4B8
330
1F
100
AcDbEntity
  8
KIGOU
  6
Continuous
 62
   255
370
    50
100
AcDbLine
 10
10198.3313984324
 20
13266.48145734566
 30
0.0
 11
10140.0376394044
 21
13208.18769831766
 31
0.0
  0
LINE
  5
4B9
330
1F
100
AcDbEntity
  8
KIGOU
  6
Continuous
 62
   255
370
    50
100
AcDbLine
 10
10198.3313984324
 20
13261.99132928466
 30
0.0
 11
10141.2624576814
 21
13204.92238853466
 31
0.0
  0
LINE
  5
4BA
330
1F
100
AcDbEntity
  8
KIGOU
  6
Continuous
 62
   255
370
    50
100
AcDbLine
 10
10198.3313984324
 20
13257.50120122466
 30
0.0
 11
10142.5513918764
 21
13201.72119466866
 31
0.0
  0
LINE
  5
4BB
330
1F
100
AcDbEntity
  8
KIGOU
  6
Continuous
 62
   255
370
    50
100
AcDbLine
 10
10198.3313984324
 20
13253.01107316366
 30
0.0
 11
10143.9025204244
 21
13198.58219515566
 31
0.0
  0
LINE
  5
4BC
330
1F
100
AcDbEntity
  8
KIGOU
  6
Continuous
 62
   255
370
    50
100
AcDbLine
 10
10198.3313984324
 20
13248.52094510366
 30
0.0
 11
10145.3141156424
 21
13195.50366231366
 31
0.0
  0
LINE
  5
4BD
330
1F
100
AcDbEntity
  8
KIGOU
  6
Continuous
 62
   255
370
    50
100
AcDbLine
 10
10198.3313984324
 20
13244.03081704266
 30
0.0
 11
10146.7846239254
 21
13192.48404253566
 31
0.0
  0
LINE
  5
4BE
330
1F
100
AcDbEntity
  8
KIGOU
  6
Continuous
 62
   255
370
    50
100
AcDbLine
 10
10198.3313984324
 20
13239.54068898266
 30
0.0
 11
10148.3126488674
 21
13189.52193941766
 31
0.0
  0
LINE
  5
4BF
330
1F
100
AcDbEntity
  8
KIGOU
  6
Continuous
 62
   255
370
    50
100
AcDbLine
 10
10198.3313984324
 20
13235.05056092166
 30
0.0
 11
10149.8969368494
 21
13186.61609933866
 31
0.0
  0
ARC
  5
4C0
330
1F
100
AcDbEntity
  8
KIGOU
  6
Continuous
 62
   255
370
    50
100
AcDbCircle
 10
10276.4203271484
 20
13257.48249892666
 30
0.0
 40
145.0179812412807
100
AcDbArc
 50
237.4199402095985
 51
122.5800597903898
  0
ARC
  5
4C1
330
1F
100
AcDbEntity
  8
KIGOU
  6
Continuous
 62
   255
370
    50
100
AcDbCircle
 10
10276.4203271484
 20
13257.48249892666
 30
0.0
 40
145.0179812413007
100
AcDbArc
 50
122.5800597904097
 51
237.4199402095916
  0
LINE
  5
4C2
330
1F
100
AcDbEntity
  8
KIGOU
  6
Continuous
 62
   255
370
    50
100
AcDbLine
 10
10198.3313984324
 20
13379.68042892166
 30
0.0
 11
10198.3313984324
 21
13135.28456893066
 31
0.0
  0
LINE
  5
4C3
330
1F
100
AcDbEntity
  8
KIGOU
  6
Continuous
 62
   255
370
    50
100
AcDbLine
 10
10198.3313984324
 20
13317.48249892666
 30
0.0
 11
10408.4438662744
 21
13317.48249892666
 31
0.0
  0
LINE
  5
4C4
330
1F
100
AcDbEntity
  8
KIGOU
  6
Continuous
 62
   255
370
    50
100
AcDbLine
 10
10185.8323935474
 20
13370.72578203466
 30
0.0
 11
10163.1770440404
 21
13348.07043252766
 31
0.0
  0
LINE
  5
4C5
330
1F
100
AcDbEntity
  8
KIGOU
  6
Continuous
 62
   255
370
    50
100
AcDbLine
 10
10198.3313984324
 20
13378.73465885866
 30
0.0
 11
10152.6481223894
 21
13333.05138281666
 31
0.0
  0
LINE
  5
4C6
330
1F
100
AcDbEntity
  8
KIGOU
  6
Continuous
 62
   255
370
    50
100
AcDbLine
 10
10198.3313984324
 20
13374.24453079866
 30
0.0
 11
10147.0044853204
 21
13322.91761768666
 31
0.0
  0
LINE
  5
4C7
330
1F
100
AcDbEntity
  8
KIGOU
  6
Continuous
 62
   255
370
    50
100
AcDbLine
 10
10198.3313984324
 20
13369.75440273766
 30
0.0
 11
10143.0850186494
 21
13314.50802295566
 31
0.0
  0
LINE
  5
4C8
330
1F
100
AcDbEntity
  8
KIGOU
  6
Continuous
 62
   255
370
    50
100
AcDbLine
 10
10198.3313984324
 20
13365.26427467666
 30
0.0
 11
10140.1476036654
 21
13307.08047990966
 31
0.0
  0
LINE
  5
4C9
330
1F
100
AcDbEntity
  8
KIGOU
  6
Continuous
 62
   255
370
    50
100
AcDbLine
 10
10198.3313984324
 20
13360.77414661666
 30
0.0
 11
10137.8721339844
 21
13300.31488216866
 31
0.0
  0
LINE
  5
4CA
330
1F
100
AcDbEntity
  8
KIGOU
  6
Continuous
 62
   255
370
    50
100
AcDbLine
 10
10198.3313984324
 20
13356.28401855566
 30
0.0
 11
10136.0853182134
 21
13294.03793833766
 31
0.0
  0
LINE
  5
4CB
330
1F
100
AcDbEntity
  8
KIGOU
  6
Continuous
 62
   255
370
    50
100
AcDbLine
 10
10198.3313984324
 20
13351.79389049566
 30
0.0
 11
10134.6806330414
 21
13288.14312510466
 31
0.0
  0
LINE
  5
4CC
330
1F
100
AcDbEntity
  8
KIGOU
  6
Continuous
 62
   255
370
    50
100
AcDbLine
 10
10198.3313984324
 20
13347.30376243466
 30
0.0
 11
10133.5869729234
 21
13282.55933692666
 31
0.0
  0
LINE
  5
4CD
330
1F
100
AcDbEntity
  8
KIGOU
  6
Continuous
 62
   255
370
    50
100
AcDbLine
 10
10198.3313984324
 20
13342.81363437466
 30
0.0
 11
10132.7540355054
 21
13277.23627144766
 31
0.0
  0
LINE
  5
4CE
330
1F
100
AcDbEntity
  8
KIGOU
  6
Continuous
 62
   255
370
    50
100
AcDbLine
 10
10198.3313984324
 20
13338.32350631366
 30
0.0
 11
10132.1446632654
 21
13272.13677114666
 31
0.0
  0
LINE
  5
4CF
330
1F
100
AcDbEntity
  8
KIGOU
  6
Continuous
 62
   255
370
    50
100
AcDbLine
 10
10198.3313984324
 20
13333.83337825366
 30
0.0
 11
10131.7304752644
 21
13267.23245508566
 31
0.0
  0
LINE
  5
4D0
330
1F
100
AcDbEntity
  8
KIGOU
  6
Continuous
 62
   255
370
    50
100
AcDbLine
 10
10198.3313984324
 20
13329.34325019266
 30
0.0
 11
10131.4892093124
 21
13262.50106107266
 31
0.0
  0
LINE
  5
4D1
330
1F
100
AcDbEntity
  8
KIGOU
  6
Continuous
 62
   255
370
    50
100
AcDbLine
 10
10198.3313984324
 20
13324.85312213266
 30
0.0
 11
10131.4030202414
 21
13257.92474394166
 31
0.0
  0
LINE
  5
4D2
330
1F
100
AcDbEntity
  8
KIGOU
  6
Continuous
 62
   255
370
    50
100
AcDbLine
 10
10198.3313984324
 20
13320.36299407166
 30
0.0
 11
10131.4573443884
 21
13253.48894002866
 31
0.0
  0
LINE
  5
4D3
330
1F
100
AcDbEntity
  8
KIGOU
  6
Continuous
 62
   255
370
    50
100
AcDbLine
 10
10198.3313984324
 20
13315.87286601166
 30
0.0
 11
10131.6401155184
 21
13249.18158309766
 31
0.0
  0
LINE
  5
4D4
330
1F
100
AcDbEntity
  8
KIGOU
  6
Continuous
 62
   255
370
    50
100
AcDbLine
 10
10198.3313984324
 20
13311.38273795066
 30
0.0
 11
10131.9412075944
 21
13244.99254711366
 31
0.0
  0
LINE
  5
4D5
330
1F
100
AcDbEntity
  8
KIGOU
  6
Continuous
 62
   255
370
    50
100
AcDbLine
 10
10198.3313984324
 20
13306.89260989066
 30
0.0
 11
10132.3520289204
 21
13240.91324037866
 31
0.0
  0
LINE
  5
4D6
330
1F
100
AcDbEntity
  8
KIGOU
  6
Continuous
 62
   255
370
    50
100
AcDbLine
 10
10198.3313984324
 20
13302.40248182966
 30
0.0
 11
10132.8652201704
 21
13236.93630356766
 31
0.0
  0
LINE
  5
4D7
330
1F
100
AcDbEntity
  8
KIGOU
  6
Continuous
 62
   255
370
    50
100
AcDbLine
 10
10198.3313984324
 20
13197.48249892666
 30
0.0
 11
10408.4438662744
 21
13197.48249892666
 31
0.0
  0
LINE
  5
4D8
330
1F
100
AcDbEntity
  8
KIGOU
  6
Continuous
 62
   255
370
    50
100
AcDbLine
 10
10198.3313984324
 20
13230.56043286066
 30
0.0
 11
10151.5363646904
 21
13183.76539911866
 31
0.0
  0
LINE
  5
4D9
330
1F
100
AcDbEntity
  8
KIGOU
  6
Continuous
 62
   255
370
    50
100
AcDbLine
 10
10198.3313984324
 20
13226.07030480066
 30
0.0
 11
10153.2299290594
 21
13180.96883542766
 31
0.0
  0
LINE
  5
4DA
330
1F
100
AcDbEntity
  8
KIGOU
  6
Continuous
 62
   255
370
    50
100
AcDbLine
 10
10198.3313984324
 20
13221.58017673966
 30
0.0
 11
10154.9767373914
 21
13178.22551569966
 31
0.0
  0
LINE
  5
4DB
330
1F
100
AcDbEntity
  8
KIGOU
  6
Continuous
 62
   255
370
    50
100
AcDbLine
 10
10198.3313984324
 20
13217.09004867966
 30
0.0
 11
10156.7760000954
 21
13175.53465034366
 31
0.0
  0
LINE
  5
4DC
330
1F
100
AcDbEntity
  8
KIGOU
  6
Continuous
 62
   255
370
    50
100
AcDbLine
 10
10198.3313984324
 20
13212.59992061866
 30
0.0
 11
10158.6270238944
 21
13172.89554608066
 31
0.0
  0
LINE
  5
4DD
330
1F
100
AcDbEntity
  8
KIGOU
  6
Continuous
 62
   255
370
    50
100
AcDbLine
 10
10198.3313984324
 20
13208.10979255866
 30
0.0
 11
10160.5292061444
 21
13170.30760027066
 31
0.0
  0
LINE
  5
4DE
330
1F
100
AcDbEntity
  8
KIGOU
  6
Continuous
 62
   255
370
    50
100
AcDbLine
 10
10198.3313984324
 20
13203.61966449766
 30
0.0
 11
10162.4820300394
 21
13167.77029610466
 31
0.0
  0
LINE
  5
4DF
330
1F
100
AcDbEntity
  8
KIGOU
  6
Continuous
 62
   255
370
    50
100
AcDbLine
 10
10198.3313984324
 20
13199.12953643766
 30
0.0
 11
10164.4850605844
 21
13165.28319858966
 31
0.0
  0
LINE
  5
4E0
330
1F
100
AcDbEntity
  8
KIGOU
  6
Continuous
 62
   255
370
    50
100
AcDbLine
 10
10198.3313984324
 20
13194.63940837666
 30
0.0
 11
10166.5379412844
 21
13162.84595122866
 31
0.0
  0
LINE
  5
4E1
330
1F
100
AcDbEntity
  8
KIGOU
  6
Continuous
 62
   255
370
    50
100
AcDbLine
 10
10198.3313984324
 20
13190.14928031666
 30
0.0
 11
10168.6403914684
 21
13160.45827335266
 31
0.0
  0
LINE
  5
4E2
330
1F
100
AcDbEntity
  8
KIGOU
  6
Continuous
 62
   255
370
    50
100
AcDbLine
 10
10198.3313984324
 20
13185.65915225566
 30
0.0
 11
10170.7922042214
 21
13158.11995804566
 31
0.0
  0
LINE
  5
4E3
330
1F
100
AcDbEntity
  8
KIGOU
  6
Continuous
 62
   255
370
    50
100
AcDbLine
 10
10198.3313984324
 20
13181.16902419566
 30
0.0
 11
10172.9932448704
 21
13155.83087063266
 31
0.0
  0
LINE
  5
4E4
330
1F
100
AcDbEntity
  8
KIGOU
  6
Continuous
 62
   255
370
    50
100
AcDbLine
 10
10198.3313984324
 20
13176.67889613466
 30
0.0
 11
10175.2434500044
 21
13153.59094770766
 31
0.0
  0
LINE
  5
4E5
330
1F
100
AcDbEntity
  8
KIGOU
  6
Continuous
 62
   255
370
    50
100
AcDbLine
 10
10198.3313984324
 20
13172.18876807466
 30
0.0
 11
10177.5428270254
 21
13151.40019666666
 31
0.0
  0
LINE
  5
4E6
330
1F
100
AcDbEntity
  8
KIGOU
  6
Continuous
 62
   255
370
    50
100
AcDbLine
 10
10198.3313984324
 20
13167.69864001366
 30
0.0
 11
10179.8914541914
 21
13149.25869577266
 31
0.0
  0
LINE
  5
4E7
330
1F
100
AcDbEntity
  8
KIGOU
  6
Continuous
 62
   255
370
    50
100
AcDbLine
 10
10198.3313984324
 20
13163.20851195266
 30
0.0
 11
10182.2894811914
 21
13147.16659471166
 31
0.0
  0
LINE
  5
4E8
330
1F
100
AcDbEntity
  8
KIGOU
  6
Continuous
 62
   255
370
    50
100
AcDbLine
 10
10198.3313984324
 20
13158.71838389266
 30
0.0
 11
10184.7371302234
 21
13145.12411568366
 31
0.0
  0
LINE
  5
4E9
330
1F
100
AcDbEntity
  8
KIGOU
  6
Continuous
 62
   255
370
    50
100
AcDbLine
 10
10198.3313984324
 20
13154.22825583166
 30
0.0
 11
10187.2346976284
 21
13143.13155502866
 31
0.0
  0
LINE
  5
4EA
330
1F
100
AcDbEntity
  8
KIGOU
  6
Continuous
 62
   255
370
    50
100
AcDbLine
 10
10198.3313984324
 20
13149.73812777166
 30
0.0
 11
10189.7825560804
 21
13141.18928541966
 31
0.0
  0
LINE
  5
4EB
330
1F
100
AcDbEntity
  8
KIGOU
  6
Continuous
 62
   255
370
    50
100
AcDbLine
 10
10198.3313984324
 20
13145.24799971066
 30
0.0
 11
10192.3811573904
 21
13139.29775866866
 31
0.0
  0
LINE
  5
4EC
330
1F
100
AcDbEntity
  8
KIGOU
  6
Continuous
 62
   255
370
    50
100
AcDbLine
 10
10198.3313984324
 20
13140.75787165066
 30
0.0
 11
10195.0310359624
 21
13137.45750918066
 31
0.0
  0
LINE
  5
4ED
330
1F
100
AcDbEntity
  8
KIGOU
  6
Continuous
 62
   255
370
    50
100
AcDbLine
 10
10198.3313984324
 20
13136.26774358966
 30
0.0
 11
10197.7328129714
 21
13135.66915812966
 31
0.0
  0
ARC
  5
4EE
330
1F
100
AcDbEntity
  8
SONOTA
  6
Continuous
 62
   255
370
    50
100
AcDbCircle
 10
9328.900345906799
 20
7894.235517685956
 30
0.0
 40
5800.0
100
AcDbArc
 50
85.04949899975702
 51
87.89482100067401
  0
ARC
  5
4EF
330
1F
100
AcDbEntity
  8
SONOTA
  6
Continuous
 62
   255
370
    50
100
AcDbCircle
 10
9430.566345907
 20
13631.92551768566
 30
0.0
 40
500.0
100
AcDbArc
 50
6.006408599926731
 51
10.28666599955307
  0
ARC
  5
4F0
330
1F
100
AcDbEntity
  8
SONOTA
  6
Continuous
 62
   255
370
    50
100
AcDbCircle
 10
9893.995345907
 20
13716.03351768566
 30
0.0
 40
29.0
100
AcDbArc
 50
10.28666599956224
 51
81.99104300072754
  0
LINE
  5
4F1
330
1F
100
AcDbEntity
  8
SONOTA
  6
Continuous
 62
   255
370
    50
100
AcDbLine
 10
16893.8983459074
 20
16124.96144953466
 30
0.0
 11
16893.8983459074
 21
5147.789054350055
 31
0.0
  0
LINE
  5
4F2
330
1F
100
AcDbEntity
  8
SONOTA
  6
Continuous
 62
   255
370
    50
100
AcDbLine
 10
14703.8983459074
 20
16124.96144953466
 30
0.0
 11
14703.8983459074
 21
5147.789054350055
 31
0.0
  0
LINE
  5
4F3
330
1F
100
AcDbEntity
  8
SONOTA
  6
Continuous
 62
   255
370
    50
100
AcDbLine
 10
14603.8983459074
 20
9327.464517685854
 30
0.0
 11
14603.8983459074
 21
11302.46451768565
 31
0.0
  0
LINE
  5
4F4
330
1F
100
AcDbEntity
  8
SONOTA
  6
Continuous
 62
   255
370
    50
100
AcDbLine
 10
14803.8983459074
 20
9327.464517685854
 30
0.0
 11
14803.8983459074
 21
11302.46451768565
 31
0.0
  0
LINE
  5
4F5
330
1F
100
AcDbEntity
  8
SONOTA
  6
Continuous
 62
   255
370
    50
100
AcDbLine
 10
16645.1483459074
 20
13872.46451768565
 30
0.0
 11
16645.1483459074
 21
7211.905002750955
 31
0.0
  0
LINE
  5
4F6
330
1F
100
AcDbEntity
  8
SONOTA
  6
Continuous
 62
   255
370
    50
100
AcDbLine
 10
16745.1483459074
 20
13869.96451768565
 30
0.0
 11
16745.1483459074
 21
6911.905502750955
 31
0.0
  0
LINE
  5
4F7
330
1F
100
AcDbEntity
  8
SONOTA
  6
Continuous
 62
   255
370
    50
100
AcDbLine
 10
17255.1483459074
 20
13869.96451768565
 30
0.0
 11
17255.1483459074
 21
6911.905502750955
 31
0.0
  0
LINE
  5
4F8
330
1F
100
AcDbEntity
  8
SONOTA
  6
Continuous
 62
   255
370
    50
100
AcDbLine
 10
17017.6483459074
 20
13822.46451768565
 30
0.0
 11
17017.6483459074
 21
6959.405502750953
 31
0.0
  0
LINE
  5
4F9
330
1F
100
AcDbEntity
  8
SONOTA
  6
Continuous
 62
   255
370
    50
100
AcDbLine
 10
16967.6483459074
 20
13822.46451768565
 30
0.0
 11
16967.6483459074
 21
6959.405502750953
 31
0.0
  0
LINE
  5
4FA
330
1F
100
AcDbEntity
  8
SONOTA
  6
Continuous
 62
   255
370
    50
100
AcDbLine
 10
17315.1483459074
 20
15322.00458274466
 30
0.0
 11
17315.1483459074
 21
6069.405502751055
 31
0.0
  0
LINE
  5
4FB
330
1F
100
AcDbEntity
  8
SONOTA
  6
Continuous
 62
   255
370
    50
100
AcDbLine
 10
16472.6483459074
 20
6069.405502750955
 30
0.0
 11
16472.6483459074
 21
6911.905502750955
 31
0.0
  0
LINE
  5
4FC
330
1F
100
AcDbEntity
  8
SONOTA
  6
Continuous
 62
   255
370
    50
100
AcDbLine
 10
14853.8983459074
 20
6189.405502750953
 30
0.0
 11
14853.8983459074
 21
6797.465017685855
 31
0.0
  0
LINE
  5
4FD
330
1F
100
AcDbEntity
  8
SONOTA
  6
Continuous
 62
   255
370
    50
100
AcDbLine
 10
14923.8983459074
 20
6189.405502750953
 30
0.0
 11
14923.8983459074
 21
6797.465017685855
 31
0.0
  0
LINE
  5
4FE
330
1F
100
AcDbEntity
  8
SONOTA
  6
Continuous
 62
   255
370
    50
100
AcDbLine
 10
14888.8983459074
 20
6797.465017685855
 30
0.0
 11
14888.8983459074
 21
6189.405502750953
 31
0.0
  0
LINE
  5
4FF
330
1F
100
AcDbEntity
  8
SONOTA
  6
Continuous
 62
   255
370
    50
100
AcDbLine
 10
16370.1483459074
 20
6291.905502750955
 30
0.0
 11
16370.1483459074
 21
7211.905002750955
 31
0.0
  0
LINE
  5
500
330
1F
100
AcDbEntity
  8
SONOTA
  6
Continuous
 62
   255
370
    50
100
AcDbLine
 10
14923.8983459074
 20
6069.405502750955
 30
0.0
 11
16472.6483459074
 21
6069.405502750955
 31
0.0
  0
LINE
  5
501
330
1F
100
AcDbEntity
  8
SONOTA
  6
Continuous
 62
   255
370
    50
100
AcDbLine
 10
16422.6483459074
 20
6206.905502750955
 30
0.0
 11
14973.8983459074
 21
6206.905502750955
 31
0.0
  0
LINE
  5
502
330
1F
100
AcDbEntity
  8
SONOTA
  6
Continuous
 62
   255
370
    50
100
AcDbLine
 10
16422.6483459074
 20
6156.905502750956
 30
0.0
 11
14973.8983459074
 21
6156.905502750956
 31
0.0
  0
LINE
  5
503
330
1F
100
AcDbEntity
  8
SONOTA
  6
Continuous
 62
   255
370
    50
100
AcDbLine
 10
16370.1483459074
 20
6291.905502750955
 30
0.0
 11
14923.8983459074
 21
6291.905502750955
 31
0.0
  0
LINE
  5
504
330
1F
100
AcDbEntity
  8
SONOTA
  6
Continuous
 62
   255
370
    50
100
AcDbLine
 10
14923.8983459074
 20
6069.405502750955
 30
0.0
 11
14923.8983459074
 21
6189.405502750953
 31
0.0
  0
LINE
  5
505
330
1F
100
AcDbEntity
  8
SONOTA
  6
Continuous
 62
   255
370
    50
100
AcDbLine
 10
14803.8983459074
 20
6069.405502750955
 30
0.0
 11
14803.8983459074
 21
6189.405502750953
 31
0.0
  0
LINE
  5
506
330
1F
100
AcDbEntity
  8
SONOTA
  6
Continuous
 62
   255
370
    50
100
AcDbLine
 10
14923.8983459074
 20
6189.405502750953
 30
0.0
 11
14803.8983459074
 21
6189.405502750953
 31
0.0
  0
LINE
  5
507
330
1F
100
AcDbEntity
  8
SONOTA
  6
Continuous
 62
   255
370
    50
100
AcDbLine
 10
17315.1483459074
 20
6069.405502751055
 30
0.0
 11
16472.6483459074
 21
6069.405502750955
 31
0.0
  0
LINE
  5
508
330
1F
100
AcDbEntity
  8
SONOTA
  6
Continuous
 62
   255
370
    50
100
AcDbLine
 10
16370.1483459074
 20
7211.905002750955
 30
0.0
 11
16645.1483459074
 21
7211.905002750955
 31
0.0
  0
LINE
  5
509
330
1F
100
AcDbEntity
  8
SONOTA
  6
Continuous
 62
   255
370
    50
100
AcDbLine
 10
14696.3983459074
 20
7567.464517685855
 30
0.0
 11
14696.3983459074
 21
8472.464517685854
 31
0.0
  0
LINE
  5
50A
330
1F
100
AcDbEntity
  8
SONOTA
  6
Continuous
 62
   255
370
    50
100
AcDbLine
 10
14668.8983459074
 20
7567.464517685855
 30
0.0
 11
14668.8983459074
 21
9327.464517685854
 31
0.0
  0
LINE
  5
50B
330
1F
100
AcDbEntity
  8
SONOTA
  6
Continuous
 62
   255
370
    50
100
AcDbLine
 10
14738.8983459074
 20
7567.464517685855
 30
0.0
 11
14738.8983459074
 21
9327.464517685854
 31
0.0
  0
LINE
  5
50C
330
1F
100
AcDbEntity
  8
SONOTA
  6
Continuous
 62
   255
370
    50
100
AcDbLine
 10
14988.8983459074
 20
6797.465017685855
 30
0.0
 11
14603.8983459074
 21
6797.465017685855
 31
0.0
  0
LINE
  5
50D
330
1F
100
AcDbEntity
  8
SONOTA
  6
Continuous
 62
   255
370
    50
100
AcDbLine
 10
14803.8983459074
 20
7091.185517685954
 30
0.0
 11
14988.8983459074
 21
7091.185517685954
 31
0.0
  0
LINE
  5
50E
330
1F
100
AcDbEntity
  8
SONOTA
  6
Continuous
 62
   255
370
    50
100
AcDbLine
 10
14803.8983459074
 20
7091.185517685954
 30
0.0
 11
14803.8983459074
 21
7567.464517685855
 31
0.0
  0
LINE
  5
50F
330
1F
100
AcDbEntity
  8
SONOTA
  6
Continuous
 62
   255
370
    50
100
AcDbLine
 10
14603.8983459074
 20
7567.464517685855
 30
0.0
 11
14603.8983459074
 21
6797.465017685855
 31
0.0
  0
LINE
  5
510
330
1F
100
AcDbEntity
  8
KIGOU
  6
Continuous
 62
   255
370
    50
100
AcDbLine
 10
14536.9692933814
 20
7076.909044229754
 30
0.0
 11
14326.8568255394
 21
7076.909044229754
 31
0.0
  0
LINE
  5
511
330
1F
100
AcDbEntity
  8
KIGOU
  6
Continuous
 62
   255
370
    50
100
AcDbLine
 10
14536.9692933814
 20
7196.909044229752
 30
0.0
 11
14326.8568255394
 21
7196.909044229752
 31
0.0
  0
ARC
  5
512
330
1F
100
AcDbEntity
  8
KIGOU
  6
Continuous
 62
   255
370
    50
100
AcDbCircle
 10
14458.8803646654
 20
7136.909044229654
 30
0.0
 40
145.0179812412807
100
AcDbArc
 50
57.4199402095903
 51
302.5800597904093
  0
LINE
  5
513
330
1F
100
AcDbEntity
  8
KIGOU
  6
Continuous
 62
   255
370
    50
100
AcDbLine
 10
14536.9692933814
 20
7069.538421023653
 30
0.0
 11
14603.8976715724
 21
7136.466799214452
 31
0.0
  0
LINE
  5
514
330
1F
100
AcDbEntity
  8
KIGOU
  6
Continuous
 62
   255
370
    50
100
AcDbLine
 10
14536.9692933814
 20
7074.028549084153
 30
0.0
 11
14603.8433474244
 21
7140.902603127453
 31
0.0
  0
LINE
  5
515
330
1F
100
AcDbEntity
  8
KIGOU
  6
Continuous
 62
   255
370
    50
100
AcDbLine
 10
14536.9692933814
 20
7078.518677144653
 30
0.0
 11
14603.6605762954
 21
7145.209960058453
 31
0.0
  0
LINE
  5
516
330
1F
100
AcDbEntity
  8
KIGOU
  6
Continuous
 62
   255
370
    50
100
AcDbLine
 10
14536.9692933814
 20
7083.008805205252
 30
0.0
 11
14603.3594842184
 21
7149.398996042453
 31
0.0
  0
LINE
  5
517
330
1F
100
AcDbEntity
  8
KIGOU
  6
Continuous
 62
   255
370
    50
100
AcDbLine
 10
14536.9692933814
 20
7087.498933265752
 30
0.0
 11
14602.9486628934
 21
7153.478302777752
 31
0.0
  0
LINE
  5
518
330
1F
100
AcDbEntity
  8
KIGOU
  6
Continuous
 62
   255
370
    50
100
AcDbLine
 10
14536.9692933814
 20
7091.989061326253
 30
0.0
 11
14602.4354716434
 21
7157.455239588253
 31
0.0
  0
LINE
  5
519
330
1F
100
AcDbEntity
  8
KIGOU
  6
Continuous
 62
   255
370
    50
100
AcDbLine
 10
14536.9692933814
 20
7096.479189386851
 30
0.0
 11
14601.8262662754
 21
7161.336162280152
 31
0.0
  0
LINE
  5
51A
330
1F
100
AcDbEntity
  8
KIGOU
  6
Continuous
 62
   255
370
    50
100
AcDbLine
 10
14536.9692933814
 20
7100.969317447353
 30
0.0
 11
14601.1265753744
 21
7165.126599440451
 31
0.0
  0
LINE
  5
51B
330
1F
100
AcDbEntity
  8
KIGOU
  6
Continuous
 62
   255
370
    50
100
AcDbLine
 10
14536.9692933814
 20
7105.459445507852
 30
0.0
 11
14600.3412380894
 21
7168.831390215953
 31
0.0
  0
LINE
  5
51C
330
1F
100
AcDbEntity
  8
KIGOU
  6
Continuous
 62
   255
370
    50
100
AcDbLine
 10
14536.9692933814
 20
7109.949573568454
 30
0.0
 11
14599.4745131944
 21
7172.454793380854
 31
0.0
  0
LINE
  5
51D
330
1F
100
AcDbEntity
  8
KIGOU
  6
Continuous
 62
   255
370
    50
100
AcDbLine
 10
14536.9692933814
 20
7114.439701628952
 30
0.0
 11
14598.5301664234
 21
7176.000574670553
 31
0.0
  0
LINE
  5
51E
330
1F
100
AcDbEntity
  8
KIGOU
  6
Continuous
 62
   255
370
    50
100
AcDbLine
 10
14536.9692933814
 20
7118.929829689453
 30
0.0
 11
14597.5115411284
 21
7179.472077436153
 31
0.0
  0
LINE
  5
51F
330
1F
100
AcDbEntity
  8
KIGOU
  6
Continuous
 62
   255
370
    50
100
AcDbLine
 10
14536.9692933814
 20
7123.419957750052
 30
0.0
 11
14596.4216159674
 21
7182.872280336253
 31
0.0
  0
LINE
  5
520
330
1F
100
AcDbEntity
  8
KIGOU
  6
Continuous
 62
   255
370
    50
100
AcDbLine
 10
14536.9692933814
 20
7127.910085810551
 30
0.0
 11
14595.2630524094
 21
7186.203844838053
 31
0.0
  0
LINE
  5
521
330
1F
100
AcDbEntity
  8
KIGOU
  6
Continuous
 62
   255
370
    50
100
AcDbLine
 10
14536.9692933814
 20
7132.400213871053
 30
0.0
 11
14594.0382341324
 21
7189.469154621653
 31
0.0
  0
ARC
  5
522
330
1F
100
AcDbEntity
  8
KIGOU
  6
Continuous
 62
   255
370
    50
100
AcDbCircle
 10
14458.8803646654
 20
7136.909044229654
 30
0.0
 40
145.0179812413007
100
AcDbArc
 50
302.5800597904095
 51
57.41994020959015
  0
LINE
  5
523
330
1F
100
AcDbEntity
  8
KIGOU
  6
Continuous
 62
   255
370
    50
100
AcDbLine
 10
14536.9692933814
 20
7259.106974225252
 30
0.0
 11
14536.9692933814
 21
7014.711114234054
 31
0.0
  0
LINE
  5
524
330
1F
100
AcDbEntity
  8
KIGOU
  6
Continuous
 62
   255
370
    50
100
AcDbLine
 10
14536.9692933814
 20
7136.89034193165
 30
0.0
 11
14592.7492999374
 21
7192.670348487051
 31
0.0
  0
LINE
  5
525
330
1F
100
AcDbEntity
  8
KIGOU
  6
Continuous
 62
   255
370
    50
100
AcDbLine
 10
14536.9692933814
 20
7141.380469992153
 30
0.0
 11
14591.3981713894
 21
7195.809348000154
 31
0.0
  0
LINE
  5
526
330
1F
100
AcDbEntity
  8
KIGOU
  6
Continuous
 62
   255
370
    50
100
AcDbLine
 10
14536.9692933814
 20
7145.870598052652
 30
0.0
 11
14589.9865761714
 21
7198.887880842254
 31
0.0
  0
LINE
  5
527
330
1F
100
AcDbEntity
  8
KIGOU
  6
Continuous
 62
   255
370
    50
100
AcDbLine
 10
14536.9692933814
 20
7150.360726113252
 30
0.0
 11
14588.5160678884
 21
7201.907500619953
 31
0.0
  0
LINE
  5
528
330
1F
100
AcDbEntity
  8
KIGOU
  6
Continuous
 62
   255
370
    50
100
AcDbLine
 10
14536.9692933814
 20
7154.850854173753
 30
0.0
 11
14586.9880429464
 21
7204.869603738353
 31
0.0
  0
LINE
  5
529
330
1F
100
AcDbEntity
  8
KIGOU
  6
Continuous
 62
   255
370
    50
100
AcDbLine
 10
14536.9692933814
 20
7159.340982234353
 30
0.0
 11
14585.4037549644
 21
7207.775443817051
 31
0.0
  0
LINE
  5
52A
330
1F
100
AcDbEntity
  8
KIGOU
  6
Continuous
 62
   255
370
    50
100
AcDbLine
 10
14536.9692933814
 20
7163.831110294853
 30
0.0
 11
14583.7643271234
 21
7210.626144036852
 31
0.0
  0
LINE
  5
52B
330
1F
100
AcDbEntity
  8
KIGOU
  6
Continuous
 62
   255
370
    50
100
AcDbLine
 10
14536.9692933814
 20
7168.321238355354
 30
0.0
 11
14582.0707627544
 21
7213.422707728053
 31
0.0
  0
LINE
  5
52C
330
1F
100
AcDbEntity
  8
KIGOU
  6
Continuous
 62
   255
370
    50
100
AcDbLine
 10
14536.9692933814
 20
7172.811366415953
 30
0.0
 11
14580.3239544224
 21
7216.166027456551
 31
0.0
  0
LINE
  5
52D
330
1F
100
AcDbEntity
  8
KIGOU
  6
Continuous
 62
   255
370
    50
100
AcDbLine
 10
14536.9692933814
 20
7177.301494476452
 30
0.0
 11
14578.5246917174
 21
7218.856892812752
 31
0.0
  0
LINE
  5
52E
330
1F
100
AcDbEntity
  8
KIGOU
  6
Continuous
 62
   255
370
    50
100
AcDbLine
 10
14536.9692933814
 20
7181.791622536952
 30
0.0
 11
14576.6736679194
 21
7221.495997075052
 31
0.0
  0
LINE
  5
52F
330
1F
100
AcDbEntity
  8
KIGOU
  6
Continuous
 62
   255
370
    50
100
AcDbLine
 10
14536.9692933814
 20
7186.281750597552
 30
0.0
 11
14574.7714856694
 21
7224.083942885452
 31
0.0
  0
LINE
  5
530
330
1F
100
AcDbEntity
  8
KIGOU
  6
Continuous
 62
   255
370
    50
100
AcDbLine
 10
14536.9692933814
 20
7190.771878658053
 30
0.0
 11
14572.8186617744
 21
7226.621247051153
 31
0.0
  0
LINE
  5
531
330
1F
100
AcDbEntity
  8
KIGOU
  6
Continuous
 62
   255
370
    50
100
AcDbLine
 10
14536.9692933814
 20
7195.262006718554
 30
0.0
 11
14570.8156312294
 21
7229.108344566153
 31
0.0
  0
LINE
  5
532
330
1F
100
AcDbEntity
  8
KIGOU
  6
Continuous
 62
   255
370
    50
100
AcDbLine
 10
14536.9692933814
 20
7199.752134779154
 30
0.0
 11
14568.7627505294
 21
7231.545591926953
 31
0.0
  0
LINE
  5
533
330
1F
100
AcDbEntity
  8
KIGOU
  6
Continuous
 62
   255
370
    50
100
AcDbLine
 10
14536.9692933814
 20
7204.242262839653
 30
0.0
 11
14566.6603003454
 21
7233.933269803154
 31
0.0
  0
LINE
  5
534
330
1F
100
AcDbEntity
  8
KIGOU
  6
Continuous
 62
   255
370
    50
100
AcDbLine
 10
14536.9692933814
 20
7208.732390900153
 30
0.0
 11
14564.5084875914
 21
7236.271585110451
 31
0.0
  0
LINE
  5
535
330
1F
100
AcDbEntity
  8
KIGOU
  6
Continuous
 62
   255
370
    50
100
AcDbLine
 10
14536.9692933814
 20
7213.222518960752
 30
0.0
 11
14562.3074469434
 21
7238.560672522851
 31
0.0
  0
LINE
  5
536
330
1F
100
AcDbEntity
  8
KIGOU
  6
Continuous
 62
   255
370
    50
100
AcDbLine
 10
14536.9692933814
 20
7217.712647021253
 30
0.0
 11
14560.0572418094
 21
7240.800595448754
 31
0.0
  0
LINE
  5
537
330
1F
100
AcDbEntity
  8
KIGOU
  6
Continuous
 62
   255
370
    50
100
AcDbLine
 10
14536.9692933814
 20
7222.202775081752
 30
0.0
 11
14557.7578647884
 21
7242.991346488952
 31
0.0
  0
LINE
  5
538
330
1F
100
AcDbEntity
  8
KIGOU
  6
Continuous
 62
   255
370
    50
100
AcDbLine
 10
14536.9692933814
 20
7226.692903142353
 30
0.0
 11
14555.4092376224
 21
7245.132847382953
 31
0.0
  0
LINE
  5
539
330
1F
100
AcDbEntity
  8
KIGOU
  6
Continuous
 62
   255
370
    50
100
AcDbLine
 10
14536.9692933814
 20
7231.183031202853
 30
0.0
 11
14553.0112106224
 21
7247.224948443953
 31
0.0
  0
LINE
  5
53A
330
1F
100
AcDbEntity
  8
KIGOU
  6
Continuous
 62
   255
370
    50
100
AcDbLine
 10
14536.9692933814
 20
7235.673159263353
 30
0.0
 11
14550.5635615904
 21
7249.267427472154
 31
0.0
  0
LINE
  5
53B
330
1F
100
AcDbEntity
  8
KIGOU
  6
Continuous
 62
   255
370
    50
100
AcDbLine
 10
14536.9692933814
 20
7240.163287323952
 30
0.0
 11
14548.0659941854
 21
7251.259988127752
 31
0.0
  0
LINE
  5
53C
330
1F
100
AcDbEntity
  8
KIGOU
  6
Continuous
 62
   255
370
    50
100
AcDbLine
 10
14536.9692933814
 20
7244.653415384451
 30
0.0
 11
14545.5181357334
 21
7253.202257736153
 31
0.0
  0
LINE
  5
53D
330
1F
100
AcDbEntity
  8
KIGOU
  6
Continuous
 62
   255
370
    50
100
AcDbLine
 10
14536.9692933814
 20
7249.143543444953
 30
0.0
 11
14542.9195344234
 21
7255.093784486852
 31
0.0
  0
LINE
  5
53E
330
1F
100
AcDbEntity
  8
KIGOU
  6
Continuous
 62
   255
370
    50
100
AcDbLine
 10
14536.9692933814
 20
7253.63367150555
 30
0.0
 11
14540.2696558514
 21
7256.934033975453
 31
0.0
  0
LINE
  5
53F
330
1F
100
AcDbEntity
  8
KIGOU
  6
Continuous
 62
   255
370
    50
100
AcDbLine
 10
14536.9692933814
 20
7258.123799566053
 30
0.0
 11
14537.5678788414
 21
7258.722385026254
 31
0.0
  0
LINE
  5
540
330
1F
100
AcDbEntity
  8
KIGOU
  6
Continuous
 62
   255
370
    50
100
AcDbLine
 10
14549.4682982664
 20
7023.665761121352
 30
0.0
 11
14572.1236477734
 21
7046.321110628453
 31
0.0
  0
LINE
  5
541
330
1F
100
AcDbEntity
  8
KIGOU
  6
Continuous
 62
   255
370
    50
100
AcDbLine
 10
14536.9692933814
 20
7015.656884297154
 30
0.0
 11
14582.6525694244
 21
7061.340160339754
 31
0.0
  0
LINE
  5
542
330
1F
100
AcDbEntity
  8
KIGOU
  6
Continuous
 62
   255
370
    50
100
AcDbLine
 10
14536.9692933814
 20
7020.147012357752
 30
0.0
 11
14588.2962064934
 21
7071.473925469553
 31
0.0
  0
LINE
  5
543
330
1F
100
AcDbEntity
  8
KIGOU
  6
Continuous
 62
   255
370
    50
100
AcDbLine
 10
14536.9692933814
 20
7024.637140418253
 30
0.0
 11
14592.2156731644
 21
7079.883520200754
 31
0.0
  0
LINE
  5
544
330
1F
100
AcDbEntity
  8
KIGOU
  6
Continuous
 62
   255
370
    50
100
AcDbLine
 10
14536.9692933814
 20
7029.127268478852
 30
0.0
 11
14595.1530881484
 21
7087.311063245853
 31
0.0
  0
LINE
  5
545
330
1F
100
AcDbEntity
  8
KIGOU
  6
Continuous
 62
   255
370
    50
100
AcDbLine
 10
14536.9692933814
 20
7033.617396539352
 30
0.0
 11
14597.4285578294
 21
7094.076660986952
 31
0.0
  0
LINE
  5
546
330
1F
100
AcDbEntity
  8
KIGOU
  6
Continuous
 62
   255
370
    50
100
AcDbLine
 10
14536.9692933814
 20
7038.107524599853
 30
0.0
 11
14599.2153735994
 21
7100.353604818152
 31
0.0
  0
LINE
  5
547
330
1F
100
AcDbEntity
  8
KIGOU
  6
Continuous
 62
   255
370
    50
100
AcDbLine
 10
14536.9692933814
 20
7042.597652660453
 30
0.0
 11
14600.6200587724
 21
7106.248418051252
 31
0.0
  0
LINE
  5
548
330
1F
100
AcDbEntity
  8
KIGOU
  6
Continuous
 62
   255
370
    50
100
AcDbLine
 10
14536.9692933814
 20
7047.087780720953
 30
0.0
 11
14601.7137188904
 21
7111.832206229653
 31
0.0
  0
LINE
  5
549
330
1F
100
AcDbEntity
  8
KIGOU
  6
Continuous
 62
   255
370
    50
100
AcDbLine
 10
14536.9692933814
 20
7051.577908781454
 30
0.0
 11
14602.5466563084
 21
7117.155271707951
 31
0.0
  0
LINE
  5
54A
330
1F
100
AcDbEntity
  8
KIGOU
  6
Continuous
 62
   255
370
    50
100
AcDbLine
 10
14536.9692933814
 20
7056.068036842053
 30
0.0
 11
14603.1560285484
 21
7122.254772008852
 31
0.0
  0
LINE
  5
54B
330
1F
100
AcDbEntity
  8
KIGOU
  6
Continuous
 62
   255
370
    50
100
AcDbLine
 10
14536.9692933814
 20
7060.558164902552
 30
0.0
 11
14603.5702165494
 21
7127.159088069953
 31
0.0
  0
LINE
  5
54C
330
1F
100
AcDbEntity
  8
KIGOU
  6
Continuous
 62
   255
370
    50
100
AcDbLine
 10
14536.9692933814
 20
7065.048292963052
 30
0.0
 11
14603.8114825014
 21
7131.890482082851
 31
0.0
  0
LINE
  5
54D
330
1F
100
AcDbEntity
  8
SONOTA
  6
Continuous
 62
   255
370
    50
100
AcDbLine
 10
14603.8983459074
 20
7567.464517685855
 30
0.0
 11
14803.8983459074
 21
7567.464517685855
 31
0.0
  0
LINE
  5
54E
330
1F
100
AcDbEntity
  8
SONOTA
  6
Continuous
 62
   255
370
    50
100
AcDbLine
 10
14988.8983459074
 20
6797.465017685855
 30
0.0
 11
14988.8983459074
 21
7091.185517685954
 31
0.0
  0
LINE
  5
54F
330
1F
100
AcDbEntity
  8
SONOTA
  6
Continuous
 62
   255
370
    50
100
AcDbLine
 10
14711.3983459074
 20
9327.464517685854
 30
0.0
 11
14711.3983459074
 21
8422.464517685854
 31
0.0
  0
LINE
  5
550
330
1F
100
AcDbEntity
  8
SONOTA
  6
Continuous
 62
   255
370
    50
100
AcDbLine
 10
14678.8983459074
 20
8447.464517685854
 30
0.0
 11
14728.8983459074
 21
8447.464517685854
 31
0.0
  0
LINE
  5
551
330
1F
100
AcDbEntity
  8
SONOTA
  6
Continuous
 62
   255
370
    50
100
AcDbLine
 10
14603.8983459074
 20
9327.464517685854
 30
0.0
 11
14803.8983459074
 21
9327.464517685854
 31
0.0
  0
LINE
  5
552
330
1F
100
AcDbEntity
  8
SONOTA
  6
Continuous
 62
   255
370
    50
100
AcDbLine
 10
16472.6483459074
 20
6911.905502750955
 30
0.0
 11
17315.1483459074
 21
6911.905502750955
 31
0.0
  0
CIRCLE
  5
553
330
1F
100
AcDbEntity
  8
SONOTA
  6
Continuous
 62
   255
370
    50
100
AcDbCircle
 10
16578.8123459074
 20
7061.522002750955
 30
0.0
 40
75.0
  0
CIRCLE
  5
554
330
1F
100
AcDbEntity
  8
SONOTA
  6
Continuous
 62
   255
370
    50
100
AcDbCircle
 10
16578.8123459074
 20
7061.522002750955
 30
0.0
 40
50.0
  0
LINE
  5
555
330
1F
100
AcDbEntity
  8
SONOTA
  6
Continuous
 62
   255
370
    50
100
AcDbLine
 10
17017.6483459074
 20
6959.405502750953
 30
0.0
 11
16967.6483459074
 21
6959.405502750953
 31
0.0
  0
LINE
  5
556
330
1F
100
AcDbEntity
  8
SONOTA
  6
Continuous
 62
   255
370
    50
100
AcDbLine
 10
14738.8983459074
 20
11302.46451768565
 30
0.0
 11
14738.8983459074
 21
13062.46451768565
 31
0.0
  0
LINE
  5
557
330
1F
100
AcDbEntity
  8
SONOTA
  6
Continuous
 62
   255
370
    50
100
AcDbLine
 10
14668.8983459074
 20
11302.46451768565
 30
0.0
 11
14668.8983459074
 21
13062.46451768565
 31
0.0
  0
LINE
  5
558
330
1F
100
AcDbEntity
  8
SONOTA
  6
Continuous
 62
   255
370
    50
100
AcDbLine
 10
14711.3983459074
 20
13062.46451768565
 30
0.0
 11
14711.3983459074
 21
12157.46451768565
 31
0.0
  0
LINE
  5
559
330
1F
100
AcDbEntity
  8
SONOTA
  6
Continuous
 62
   255
370
    50
100
AcDbLine
 10
14696.3983459074
 20
11302.46451768565
 30
0.0
 11
14696.3983459074
 21
12207.46451768565
 31
0.0
  0
ARC
  5
55A
330
1F
100
AcDbEntity
  8
KIGOU
  6
Continuous
 62
   255
370
    50
100
AcDbCircle
 10
14458.8803646654
 20
10816.58819131765
 30
0.0
 40
145.0179812412807
100
AcDbArc
 50
57.41994020959012
 51
302.5800597904195
  0
LINE
  5
55B
330
1F
100
AcDbEntity
  8
KIGOU
  6
Continuous
 62
   255
370
    50
100
AcDbLine
 10
14536.9692933814
 20
10876.58819131765
 30
0.0
 11
14326.8568255394
 21
10876.58819131765
 31
0.0
  0
LINE
  5
55C
330
1F
100
AcDbEntity
  8
KIGOU
  6
Continuous
 62
   255
370
    50
100
AcDbLine
 10
14536.9692933814
 20
10756.58819131765
 30
0.0
 11
14326.8568255394
 21
10756.58819131765
 31
0.0
  0
LINE
  5
55D
330
1F
100
AcDbEntity
  8
KIGOU
  6
Continuous
 62
   255
370
    50
100
AcDbLine
 10
14549.4682982664
 20
10703.34490820865
 30
0.0
 11
14572.1236477734
 21
10726.00025771565
 31
0.0
  0
LINE
  5
55E
330
1F
100
AcDbEntity
  8
KIGOU
  6
Continuous
 62
   255
370
    50
100
AcDbLine
 10
14536.9692933814
 20
10695.33603138465
 30
0.0
 11
14582.6525694244
 21
10741.01930742765
 31
0.0
  0
LINE
  5
55F
330
1F
100
AcDbEntity
  8
KIGOU
  6
Continuous
 62
   255
370
    50
100
AcDbLine
 10
14536.9692933814
 20
10699.82615944565
 30
0.0
 11
14588.2962064934
 21
10751.15307255765
 31
0.0
  0
LINE
  5
560
330
1F
100
AcDbEntity
  8
KIGOU
  6
Continuous
 62
   255
370
    50
100
AcDbLine
 10
14536.9692933814
 20
10704.31628750565
 30
0.0
 11
14592.2156731644
 21
10759.56266728865
 31
0.0
  0
LINE
  5
561
330
1F
100
AcDbEntity
  8
KIGOU
  6
Continuous
 62
   255
370
    50
100
AcDbLine
 10
14536.9692933814
 20
10708.80641556665
 30
0.0
 11
14595.1530881484
 21
10766.99021033365
 31
0.0
  0
LINE
  5
562
330
1F
100
AcDbEntity
  8
KIGOU
  6
Continuous
 62
   255
370
    50
100
AcDbLine
 10
14536.9692933814
 20
10713.29654362665
 30
0.0
 11
14597.4285578294
 21
10773.75580807465
 31
0.0
  0
LINE
  5
563
330
1F
100
AcDbEntity
  8
KIGOU
  6
Continuous
 62
   255
370
    50
100
AcDbLine
 10
14536.9692933814
 20
10717.78667168765
 30
0.0
 11
14599.2153735994
 21
10780.03275190565
 31
0.0
  0
LINE
  5
564
330
1F
100
AcDbEntity
  8
KIGOU
  6
Continuous
 62
   255
370
    50
100
AcDbLine
 10
14536.9692933814
 20
10722.27679974765
 30
0.0
 11
14600.6200587724
 21
10785.92756513865
 31
0.0
  0
LINE
  5
565
330
1F
100
AcDbEntity
  8
KIGOU
  6
Continuous
 62
   255
370
    50
100
AcDbLine
 10
14536.9692933814
 20
10726.76692780865
 30
0.0
 11
14601.7137188904
 21
10791.51135331765
 31
0.0
  0
LINE
  5
566
330
1F
100
AcDbEntity
  8
KIGOU
  6
Continuous
 62
   255
370
    50
100
AcDbLine
 10
14536.9692933814
 20
10731.25705586865
 30
0.0
 11
14602.5466563084
 21
10796.83441879565
 31
0.0
  0
LINE
  5
567
330
1F
100
AcDbEntity
  8
KIGOU
  6
Continuous
 62
   255
370
    50
100
AcDbLine
 10
14536.9692933814
 20
10735.74718392965
 30
0.0
 11
14603.1560285484
 21
10801.93391909665
 31
0.0
  0
LINE
  5
568
330
1F
100
AcDbEntity
  8
KIGOU
  6
Continuous
 62
   255
370
    50
100
AcDbLine
 10
14536.9692933814
 20
10740.23731199065
 30
0.0
 11
14603.5702165494
 21
10806.83823515765
 31
0.0
  0
LINE
  5
569
330
1F
100
AcDbEntity
  8
KIGOU
  6
Continuous
 62
   255
370
    50
100
AcDbLine
 10
14536.9692933814
 20
10744.72744005065
 30
0.0
 11
14603.8114825014
 21
10811.56962917065
 31
0.0
  0
LINE
  5
56A
330
1F
100
AcDbEntity
  8
KIGOU
  6
Continuous
 62
   255
370
    50
100
AcDbLine
 10
14536.9692933814
 20
10749.21756811165
 30
0.0
 11
14603.8976715724
 21
10816.14594630165
 31
0.0
  0
LINE
  5
56B
330
1F
100
AcDbEntity
  8
KIGOU
  6
Continuous
 62
   255
370
    50
100
AcDbLine
 10
14536.9692933814
 20
10753.70769617165
 30
0.0
 11
14603.8433474244
 21
10820.58175021465
 31
0.0
  0
LINE
  5
56C
330
1F
100
AcDbEntity
  8
KIGOU
  6
Continuous
 62
   255
370
    50
100
AcDbLine
 10
14536.9692933814
 20
10758.19782423265
 30
0.0
 11
14603.6605762954
 21
10824.88910714565
 31
0.0
  0
LINE
  5
56D
330
1F
100
AcDbEntity
  8
KIGOU
  6
Continuous
 62
   255
370
    50
100
AcDbLine
 10
14536.9692933814
 20
10762.68795229265
 30
0.0
 11
14603.3594842184
 21
10829.07814312965
 31
0.0
  0
LINE
  5
56E
330
1F
100
AcDbEntity
  8
KIGOU
  6
Continuous
 62
   255
370
    50
100
AcDbLine
 10
14536.9692933814
 20
10767.17808035365
 30
0.0
 11
14602.9486628934
 21
10833.15744986565
 31
0.0
  0
LINE
  5
56F
330
1F
100
AcDbEntity
  8
KIGOU
  6
Continuous
 62
   255
370
    50
100
AcDbLine
 10
14536.9692933814
 20
10771.66820841365
 30
0.0
 11
14602.4354716434
 21
10837.13438667565
 31
0.0
  0
LINE
  5
570
330
1F
100
AcDbEntity
  8
KIGOU
  6
Continuous
 62
   255
370
    50
100
AcDbLine
 10
14536.9692933814
 20
10776.15833647465
 30
0.0
 11
14601.8262662744
 21
10841.01530936765
 31
0.0
  0
LINE
  5
571
330
1F
100
AcDbEntity
  8
KIGOU
  6
Continuous
 62
   255
370
    50
100
AcDbLine
 10
14536.9692933814
 20
10780.64846453465
 30
0.0
 11
14601.1265753744
 21
10844.80574652765
 31
0.0
  0
LINE
  5
572
330
1F
100
AcDbEntity
  8
KIGOU
  6
Continuous
 62
   255
370
    50
100
AcDbLine
 10
14536.9692933814
 20
10785.13859259565
 30
0.0
 11
14600.3412380894
 21
10848.51053730365
 31
0.0
  0
LINE
  5
573
330
1F
100
AcDbEntity
  8
KIGOU
  6
Continuous
 62
   255
370
    50
100
AcDbLine
 10
14536.9692933814
 20
10789.62872065565
 30
0.0
 11
14599.4745131944
 21
10852.13394046865
 31
0.0
  0
LINE
  5
574
330
1F
100
AcDbEntity
  8
KIGOU
  6
Continuous
 62
   255
370
    50
100
AcDbLine
 10
14536.9692933814
 20
10794.11884871665
 30
0.0
 11
14598.5301664234
 21
10855.67972175865
 31
0.0
  0
LINE
  5
575
330
1F
100
AcDbEntity
  8
KIGOU
  6
Continuous
 62
   255
370
    50
100
AcDbLine
 10
14536.9692933814
 20
10798.60897677665
 30
0.0
 11
14597.5115411284
 21
10859.15122452365
 31
0.0
  0
LINE
  5
576
330
1F
100
AcDbEntity
  8
KIGOU
  6
Continuous
 62
   255
370
    50
100
AcDbLine
 10
14536.9692933814
 20
10803.09910483765
 30
0.0
 11
14596.4216159674
 21
10862.55142742365
 31
0.0
  0
LINE
  5
577
330
1F
100
AcDbEntity
  8
KIGOU
  6
Continuous
 62
   255
370
    50
100
AcDbLine
 10
14536.9692933814
 20
10807.58923289865
 30
0.0
 11
14595.2630524094
 21
10865.88299192565
 31
0.0
  0
LINE
  5
578
330
1F
100
AcDbEntity
  8
KIGOU
  6
Continuous
 62
   255
370
    50
100
AcDbLine
 10
14536.9692933814
 20
10812.07936095865
 30
0.0
 11
14594.0382341324
 21
10869.14830170965
 31
0.0
  0
LINE
  5
579
330
1F
100
AcDbEntity
  8
KIGOU
  6
Continuous
 62
   255
370
    50
100
AcDbLine
 10
14536.9692933814
 20
10816.56948901965
 30
0.0
 11
14592.7492999364
 21
10872.34949557465
 31
0.0
  0
LINE
  5
57A
330
1F
100
AcDbEntity
  8
KIGOU
  6
Continuous
 62
   255
370
    50
100
AcDbLine
 10
14536.9692933814
 20
10821.05961707965
 30
0.0
 11
14591.3981713894
 21
10875.48849508765
 31
0.0
  0
LINE
  5
57B
330
1F
100
AcDbEntity
  8
KIGOU
  6
Continuous
 62
   255
370
    50
100
AcDbLine
 10
14536.9692933814
 20
10825.54974514065
 30
0.0
 11
14589.9865761714
 21
10878.56702792965
 31
0.0
  0
LINE
  5
57C
330
1F
100
AcDbEntity
  8
KIGOU
  6
Continuous
 62
   255
370
    50
100
AcDbLine
 10
14536.9692933814
 20
10830.03987320065
 30
0.0
 11
14588.5160678884
 21
10881.58664770765
 31
0.0
  0
LINE
  5
57D
330
1F
100
AcDbEntity
  8
KIGOU
  6
Continuous
 62
   255
370
    50
100
AcDbLine
 10
14536.9692933814
 20
10834.53000126165
 30
0.0
 11
14586.9880429464
 21
10884.54875082565
 31
0.0
  0
LINE
  5
57E
330
1F
100
AcDbEntity
  8
KIGOU
  6
Continuous
 62
   255
370
    50
100
AcDbLine
 10
14536.9692933814
 20
10839.02012932165
 30
0.0
 11
14585.4037549644
 21
10887.45459090465
 31
0.0
  0
LINE
  5
57F
330
1F
100
AcDbEntity
  8
KIGOU
  6
Continuous
 62
   255
370
    50
100
AcDbLine
 10
14536.9692933814
 20
10843.51025738265
 30
0.0
 11
14583.7643271234
 21
10890.30529112465
 31
0.0
  0
LINE
  5
580
330
1F
100
AcDbEntity
  8
KIGOU
  6
Continuous
 62
   255
370
    50
100
AcDbLine
 10
14536.9692933814
 20
10848.00038544265
 30
0.0
 11
14582.0707627544
 21
10893.10185481565
 31
0.0
  0
LINE
  5
581
330
1F
100
AcDbEntity
  8
KIGOU
  6
Continuous
 62
   255
370
    50
100
AcDbLine
 10
14536.9692933814
 20
10852.49051350365
 30
0.0
 11
14580.3239544224
 21
10895.84517454365
 31
0.0
  0
LINE
  5
582
330
1F
100
AcDbEntity
  8
KIGOU
  6
Continuous
 62
   255
370
    50
100
AcDbLine
 10
14536.9692933814
 20
10856.98064156365
 30
0.0
 11
14578.5246917174
 21
10898.53603990065
 31
0.0
  0
LINE
  5
583
330
1F
100
AcDbEntity
  8
KIGOU
  6
Continuous
 62
   255
370
    50
100
AcDbLine
 10
14536.9692933814
 20
10861.47076962465
 30
0.0
 11
14576.6736679194
 21
10901.17514416265
 31
0.0
  0
LINE
  5
584
330
1F
100
AcDbEntity
  8
KIGOU
  6
Continuous
 62
   255
370
    50
100
AcDbLine
 10
14536.9692933814
 20
10865.96089768465
 30
0.0
 11
14574.7714856694
 21
10903.76308997265
 31
0.0
  0
LINE
  5
585
330
1F
100
AcDbEntity
  8
KIGOU
  6
Continuous
 62
   255
370
    50
100
AcDbLine
 10
14536.9692933814
 20
10870.45102574565
 30
0.0
 11
14572.8186617744
 21
10906.30039413865
 31
0.0
  0
LINE
  5
586
330
1F
100
AcDbEntity
  8
KIGOU
  6
Continuous
 62
   255
370
    50
100
AcDbLine
 10
14536.9692933814
 20
10874.94115380665
 30
0.0
 11
14570.8156312294
 21
10908.78749165365
 31
0.0
  0
LINE
  5
587
330
1F
100
AcDbEntity
  8
KIGOU
  6
Continuous
 62
   255
370
    50
100
AcDbLine
 10
14536.9692933814
 20
10879.43128186665
 30
0.0
 11
14568.7627505294
 21
10911.22473901465
 31
0.0
  0
LINE
  5
588
330
1F
100
AcDbEntity
  8
KIGOU
  6
Continuous
 62
   255
370
    50
100
AcDbLine
 10
14536.9692933814
 20
10883.92140992765
 30
0.0
 11
14566.6603003454
 21
10913.61241689065
 31
0.0
  0
LINE
  5
589
330
1F
100
AcDbEntity
  8
KIGOU
  6
Continuous
 62
   255
370
    50
100
AcDbLine
 10
14536.9692933814
 20
10888.41153798765
 30
0.0
 11
14564.5084875914
 21
10915.95073219765
 31
0.0
  0
LINE
  5
58A
330
1F
100
AcDbEntity
  8
KIGOU
  6
Continuous
 62
   255
370
    50
100
AcDbLine
 10
14536.9692933814
 20
10892.90166604865
 30
0.0
 11
14562.3074469434
 21
10918.23981961065
 31
0.0
  0
LINE
  5
58B
330
1F
100
AcDbEntity
  8
KIGOU
  6
Continuous
 62
   255
370
    50
100
AcDbLine
 10
14536.9692933814
 20
10897.39179410865
 30
0.0
 11
14560.0572418094
 21
10920.47974253665
 31
0.0
  0
LINE
  5
58C
330
1F
100
AcDbEntity
  8
KIGOU
  6
Continuous
 62
   255
370
    50
100
AcDbLine
 10
14536.9692933814
 20
10901.88192216965
 30
0.0
 11
14557.7578647884
 21
10922.67049357665
 31
0.0
  0
LINE
  5
58D
330
1F
100
AcDbEntity
  8
KIGOU
  6
Continuous
 62
   255
370
    50
100
AcDbLine
 10
14536.9692933814
 20
10906.37205022965
 30
0.0
 11
14555.4092376224
 21
10924.81199447065
 31
0.0
  0
LINE
  5
58E
330
1F
100
AcDbEntity
  8
KIGOU
  6
Continuous
 62
   255
370
    50
100
AcDbLine
 10
14536.9692933814
 20
10910.86217829065
 30
0.0
 11
14553.0112106224
 21
10926.90409553165
 31
0.0
  0
LINE
  5
58F
330
1F
100
AcDbEntity
  8
KIGOU
  6
Continuous
 62
   255
370
    50
100
AcDbLine
 10
14536.9692933814
 20
10915.35230635065
 30
0.0
 11
14550.5635615904
 21
10928.94657455965
 31
0.0
  0
LINE
  5
590
330
1F
100
AcDbEntity
  8
KIGOU
  6
Continuous
 62
   255
370
    50
100
AcDbLine
 10
14536.9692933814
 20
10919.84243441165
 30
0.0
 11
14548.0659941854
 21
10930.93913521565
 31
0.0
  0
LINE
  5
591
330
1F
100
AcDbEntity
  8
KIGOU
  6
Continuous
 62
   255
370
    50
100
AcDbLine
 10
14536.9692933814
 20
10924.33256247165
 30
0.0
 11
14545.5181357334
 21
10932.88140482365
 31
0.0
  0
LINE
  5
592
330
1F
100
AcDbEntity
  8
KIGOU
  6
Continuous
 62
   255
370
    50
100
AcDbLine
 10
14536.9692933814
 20
10928.82269053265
 30
0.0
 11
14542.9195344234
 21
10934.77293157465
 31
0.0
  0
LINE
  5
593
330
1F
100
AcDbEntity
  8
KIGOU
  6
Continuous
 62
   255
370
    50
100
AcDbLine
 10
14536.9692933814
 20
10933.31281859365
 30
0.0
 11
14540.2696558514
 21
10936.61318106265
 31
0.0
  0
LINE
  5
594
330
1F
100
AcDbEntity
  8
KIGOU
  6
Continuous
 62
   255
370
    50
100
AcDbLine
 10
14536.9692933814
 20
10937.80294665365
 30
0.0
 11
14537.5678788414
 21
10938.40153211365
 31
0.0
  0
LINE
  5
595
330
1F
100
AcDbEntity
  8
KIGOU
  6
Continuous
 62
   255
370
    50
100
AcDbLine
 10
14536.9692933814
 20
10694.39026132165
 30
0.0
 11
14536.9692933814
 21
10938.78612131265
 31
0.0
  0
ARC
  5
596
330
1F
100
AcDbEntity
  8
KIGOU
  6
Continuous
 62
   255
370
    50
100
AcDbCircle
 10
14458.8803646654
 20
10816.58819131765
 30
0.0
 40
145.0179812413007
100
AcDbArc
 50
302.5800597904093
 51
57.41994020957998
  0
LINE
  5
597
330
1F
100
AcDbEntity
  8
SONOTA
  6
Continuous
 62
   255
370
    50
100
AcDbLine
 10
14603.8983459074
 20
11302.46451768565
 30
0.0
 11
14803.8983459074
 21
11302.46451768565
 31
0.0
  0
LINE
  5
598
330
1F
100
AcDbEntity
  8
SONOTA
  6
Continuous
 62
   255
370
    50
100
AcDbLine
 10
14678.8983459074
 20
12182.46451768565
 30
0.0
 11
14728.8983459074
 21
12182.46451768565
 31
0.0
  0
LINE
  5
599
330
1F
100
AcDbEntity
  8
SONOTA
  6
Continuous
 62
   255
370
    50
100
AcDbLine
 10
16397.6483459074
 20
15012.46451768565
 30
0.0
 11
16645.1483459074
 21
15012.46451768565
 31
0.0
  0
LINE
  5
59A
330
1F
100
AcDbEntity
  8
SONOTA
  6
Continuous
 62
   255
370
    50
100
AcDbLine
 10
16397.6483459074
 20
14692.46451768565
 30
0.0
 11
16472.6483459074
 21
14692.46451768565
 31
0.0
  0
LINE
  5
59B
330
1F
100
AcDbEntity
  8
SONOTA
  6
Continuous
 62
   255
370
    50
100
AcDbLine
 10
14853.8983459074
 20
14027.96451768565
 30
0.0
 11
16422.6483459074
 21
14027.96451768565
 31
0.0
  0
LINE
  5
59C
330
1F
100
AcDbEntity
  8
SONOTA
  6
Continuous
 62
   255
370
    50
100
AcDbLine
 10
16422.6483459074
 20
13977.96451768565
 30
0.0
 11
14853.8983459074
 21
13977.96451768565
 31
0.0
  0
LINE
  5
59D
330
1F
100
AcDbEntity
  8
SONOTA
  6
Continuous
 62
   255
370
    50
100
AcDbLine
 10
14603.8983459074
 20
14102.96451768565
 30
0.0
 11
14603.8983459074
 21
14892.46451768565
 31
0.0
  0
LINE
  5
59E
330
1F
100
AcDbEntity
  8
SONOTA
  6
Continuous
 62
   255
370
    50
100
AcDbLine
 10
14803.8983459074
 20
13062.46451768565
 30
0.0
 11
14803.8983459074
 21
14892.46451768565
 31
0.0
  0
LINE
  5
59F
330
1F
100
AcDbEntity
  8
SONOTA
  6
Continuous
 62
   255
370
    50
100
AcDbLine
 10
14603.8983459074
 20
13062.46451768565
 30
0.0
 11
14603.8983459074
 21
13902.96451768565
 31
0.0
  0
LINE
  5
5A0
330
1F
100
AcDbEntity
  8
KIGOU
  6
Continuous
 62
   255
370
    50
100
AcDbLine
 10
14536.9692933814
 20
13317.48249892666
 30
0.0
 11
14326.8568255394
 21
13317.48249892666
 31
0.0
  0
LINE
  5
5A1
330
1F
100
AcDbEntity
  8
KIGOU
  6
Continuous
 62
   255
370
    50
100
AcDbLine
 10
14536.9692933814
 20
13197.48249892666
 30
0.0
 11
14326.8568255394
 21
13197.48249892666
 31
0.0
  0
ARC
  5
5A2
330
1F
100
AcDbEntity
  8
KIGOU
  6
Continuous
 62
   255
370
    50
100
AcDbCircle
 10
14458.8803646654
 20
13257.48249892666
 30
0.0
 40
145.0179812412807
100
AcDbArc
 50
57.41994020959987
 51
302.5800597903997
  0
LINE
  5
5A3
330
1F
100
AcDbEntity
  8
KIGOU
  6
Continuous
 62
   255
370
    50
100
AcDbLine
 10
14536.9692933814
 20
13172.15136347766
 30
0.0
 11
14602.5466563084
 21
13237.72872640466
 31
0.0
  0
LINE
  5
5A4
330
1F
100
AcDbEntity
  8
KIGOU
  6
Continuous
 62
   255
370
    50
100
AcDbLine
 10
14536.9692933814
 20
13176.64149153866
 30
0.0
 11
14603.1560285484
 21
13242.82822670566
 31
0.0
  0
LINE
  5
5A5
330
1F
100
AcDbEntity
  8
KIGOU
  6
Continuous
 62
   255
370
    50
100
AcDbLine
 10
14536.9692933814
 20
13181.13161959866
 30
0.0
 11
14603.5702165494
 21
13247.73254276666
 31
0.0
  0
LINE
  5
5A6
330
1F
100
AcDbEntity
  8
KIGOU
  6
Continuous
 62
   255
370
    50
100
AcDbLine
 10
14536.9692933814
 20
13185.62174765966
 30
0.0
 11
14603.8114825014
 21
13252.46393677966
 31
0.0
  0
LINE
  5
5A7
330
1F
100
AcDbEntity
  8
KIGOU
  6
Continuous
 62
   255
370
    50
100
AcDbLine
 10
14536.9692933814
 20
13190.11187571966
 30
0.0
 11
14603.8976715724
 21
13257.04025391066
 31
0.0
  0
LINE
  5
5A8
330
1F
100
AcDbEntity
  8
KIGOU
  6
Continuous
 62
   255
370
    50
100
AcDbLine
 10
14536.9692933814
 20
13194.60200378066
 30
0.0
 11
14603.8433474244
 21
13261.47605782366
 31
0.0
  0
LINE
  5
5A9
330
1F
100
AcDbEntity
  8
KIGOU
  6
Continuous
 62
   255
370
    50
100
AcDbLine
 10
14536.9692933814
 20
13199.09213184166
 30
0.0
 11
14603.6605762954
 21
13265.78341475466
 31
0.0
  0
LINE
  5
5AA
330
1F
100
AcDbEntity
  8
KIGOU
  6
Continuous
 62
   255
370
    50
100
AcDbLine
 10
14536.9692933814
 20
13203.58225990166
 30
0.0
 11
14603.3594842184
 21
13269.97245073866
 31
0.0
  0
LINE
  5
5AB
330
1F
100
AcDbEntity
  8
KIGOU
  6
Continuous
 62
   255
370
    50
100
AcDbLine
 10
14536.9692933814
 20
13208.07238796266
 30
0.0
 11
14602.9486628934
 21
13274.05175747466
 31
0.0
  0
LINE
  5
5AC
330
1F
100
AcDbEntity
  8
KIGOU
  6
Continuous
 62
   255
370
    50
100
AcDbLine
 10
14536.9692933814
 20
13212.56251602266
 30
0.0
 11
14602.4354716434
 21
13278.02869428466
 31
0.0
  0
LINE
  5
5AD
330
1F
100
AcDbEntity
  8
KIGOU
  6
Continuous
 62
   255
370
    50
100
AcDbLine
 10
14536.9692933814
 20
13217.05264408366
 30
0.0
 11
14601.8262662744
 21
13281.90961697666
 31
0.0
  0
LINE
  5
5AE
330
1F
100
AcDbEntity
  8
KIGOU
  6
Continuous
 62
   255
370
    50
100
AcDbLine
 10
14536.9692933814
 20
13221.54277214366
 30
0.0
 11
14601.1265753744
 21
13285.70005413666
 31
0.0
  0
LINE
  5
5AF
330
1F
100
AcDbEntity
  8
KIGOU
  6
Continuous
 62
   255
370
    50
100
AcDbLine
 10
14536.9692933814
 20
13226.03290020466
 30
0.0
 11
14600.3412380894
 21
13289.40484491266
 31
0.0
  0
LINE
  5
5B0
330
1F
100
AcDbEntity
  8
KIGOU
  6
Continuous
 62
   255
370
    50
100
AcDbLine
 10
14536.9692933814
 20
13230.52302826466
 30
0.0
 11
14599.4745131944
 21
13293.02824807766
 31
0.0
  0
LINE
  5
5B1
330
1F
100
AcDbEntity
  8
KIGOU
  6
Continuous
 62
   255
370
    50
100
AcDbLine
 10
14536.9692933814
 20
13135.28456893066
 30
0.0
 11
14536.9692933814
 21
13379.68042892166
 31
0.0
  0
ARC
  5
5B2
330
1F
100
AcDbEntity
  8
KIGOU
  6
Continuous
 62
   255
370
    50
100
AcDbCircle
 10
14458.8803646654
 20
13257.48249892666
 30
0.0
 40
145.0179812413007
100
AcDbArc
 50
302.5800597903999
 51
57.41994020961009
  0
LINE
  5
5B3
330
1F
100
AcDbEntity
  8
KIGOU
  6
Continuous
 62
   255
370
    50
100
AcDbLine
 10
14536.9692933814
 20
13235.01315632566
 30
0.0
 11
14598.5301664234
 21
13296.57402936666
 31
0.0
  0
LINE
  5
5B4
330
1F
100
AcDbEntity
  8
KIGOU
  6
Continuous
 62
   255
370
    50
100
AcDbLine
 10
14536.9692933814
 20
13239.50328438566
 30
0.0
 11
14597.5115411284
 21
13300.04553213266
 31
0.0
  0
LINE
  5
5B5
330
1F
100
AcDbEntity
  8
KIGOU
  6
Continuous
 62
   255
370
    50
100
AcDbLine
 10
14536.9692933814
 20
13243.99341244666
 30
0.0
 11
14596.4216159674
 21
13303.44573503266
 31
0.0
  0
LINE
  5
5B6
330
1F
100
AcDbEntity
  8
KIGOU
  6
Continuous
 62
   255
370
    50
100
AcDbLine
 10
14536.9692933814
 20
13248.48354050666
 30
0.0
 11
14595.2630524094
 21
13306.77729953466
 31
0.0
  0
LINE
  5
5B7
330
1F
100
AcDbEntity
  8
KIGOU
  6
Continuous
 62
   255
370
    50
100
AcDbLine
 10
14536.9692933814
 20
13252.97366856766
 30
0.0
 11
14594.0382341324
 21
13310.04260931866
 31
0.0
  0
LINE
  5
5B8
330
1F
100
AcDbEntity
  8
KIGOU
  6
Continuous
 62
   255
370
    50
100
AcDbLine
 10
14536.9692933814
 20
13257.46379662766
 30
0.0
 11
14592.7492999364
 21
13313.24380318366
 31
0.0
  0
LINE
  5
5B9
330
1F
100
AcDbEntity
  8
KIGOU
  6
Continuous
 62
   255
370
    50
100
AcDbLine
 10
14536.9692933814
 20
13261.95392468866
 30
0.0
 11
14591.3981713894
 21
13316.38280269666
 31
0.0
  0
LINE
  5
5BA
330
1F
100
AcDbEntity
  8
KIGOU
  6
Continuous
 62
   255
370
    50
100
AcDbLine
 10
14536.9692933814
 20
13266.44405274966
 30
0.0
 11
14589.9865761714
 21
13319.46133553866
 31
0.0
  0
LINE
  5
5BB
330
1F
100
AcDbEntity
  8
KIGOU
  6
Continuous
 62
   255
370
    50
100
AcDbLine
 10
14536.9692933814
 20
13270.93418080966
 30
0.0
 11
14588.5160678884
 21
13322.48095531666
 31
0.0
  0
LINE
  5
5BC
330
1F
100
AcDbEntity
  8
KIGOU
  6
Continuous
 62
   255
370
    50
100
AcDbLine
 10
14536.9692933814
 20
13275.42430887066
 30
0.0
 11
14586.9880429464
 21
13325.44305843466
 31
0.0
  0
LINE
  5
5BD
330
1F
100
AcDbEntity
  8
KIGOU
  6
Continuous
 62
   255
370
    50
100
AcDbLine
 10
14536.9692933814
 20
13279.91443693066
 30
0.0
 11
14585.4037549644
 21
13328.34889851366
 31
0.0
  0
LINE
  5
5BE
330
1F
100
AcDbEntity
  8
KIGOU
  6
Continuous
 62
   255
370
    50
100
AcDbLine
 10
14536.9692933814
 20
13284.40456499166
 30
0.0
 11
14583.7643271234
 21
13331.19959873366
 31
0.0
  0
LINE
  5
5BF
330
1F
100
AcDbEntity
  8
KIGOU
  6
Continuous
 62
   255
370
    50
100
AcDbLine
 10
14536.9692933814
 20
13288.89469305166
 30
0.0
 11
14582.0707627544
 21
13333.99616242466
 31
0.0
  0
LINE
  5
5C0
330
1F
100
AcDbEntity
  8
KIGOU
  6
Continuous
 62
   255
370
    50
100
AcDbLine
 10
14536.9692933814
 20
13293.38482111266
 30
0.0
 11
14580.3239544224
 21
13336.73948215266
 31
0.0
  0
LINE
  5
5C1
330
1F
100
AcDbEntity
  8
KIGOU
  6
Continuous
 62
   255
370
    50
100
AcDbLine
 10
14536.9692933814
 20
13297.87494917266
 30
0.0
 11
14578.5246917174
 21
13339.43034750966
 31
0.0
  0
LINE
  5
5C2
330
1F
100
AcDbEntity
  8
KIGOU
  6
Continuous
 62
   255
370
    50
100
AcDbLine
 10
14536.9692933814
 20
13302.36507723366
 30
0.0
 11
14576.6736679194
 21
13342.06945177166
 31
0.0
  0
LINE
  5
5C3
330
1F
100
AcDbEntity
  8
KIGOU
  6
Continuous
 62
   255
370
    50
100
AcDbLine
 10
14536.9692933814
 20
13306.85520529366
 30
0.0
 11
14574.7714856694
 21
13344.65739758166
 31
0.0
  0
LINE
  5
5C4
330
1F
100
AcDbEntity
  8
KIGOU
  6
Continuous
 62
   255
370
    50
100
AcDbLine
 10
14536.9692933814
 20
13311.34533335466
 30
0.0
 11
14572.8186617744
 21
13347.19470174766
 31
0.0
  0
LINE
  5
5C5
330
1F
100
AcDbEntity
  8
KIGOU
  6
Continuous
 62
   255
370
    50
100
AcDbLine
 10
14536.9692933814
 20
13315.83546141466
 30
0.0
 11
14570.8156312294
 21
13349.68179926266
 31
0.0
  0
LINE
  5
5C6
330
1F
100
AcDbEntity
  8
KIGOU
  6
Continuous
 62
   255
370
    50
100
AcDbLine
 10
14536.9692933814
 20
13320.32558947566
 30
0.0
 11
14568.7627505294
 21
13352.11904662366
 31
0.0
  0
LINE
  5
5C7
330
1F
100
AcDbEntity
  8
KIGOU
  6
Continuous
 62
   255
370
    50
100
AcDbLine
 10
14536.9692933814
 20
13324.81571753566
 30
0.0
 11
14566.6603003454
 21
13354.50672449966
 31
0.0
  0
LINE
  5
5C8
330
1F
100
AcDbEntity
  8
KIGOU
  6
Continuous
 62
   255
370
    50
100
AcDbLine
 10
14536.9692933814
 20
13329.30584559666
 30
0.0
 11
14564.5084875914
 21
13356.84503980666
 31
0.0
  0
LINE
  5
5C9
330
1F
100
AcDbEntity
  8
KIGOU
  6
Continuous
 62
   255
370
    50
100
AcDbLine
 10
14536.9692933814
 20
13333.79597365766
 30
0.0
 11
14562.3074469434
 21
13359.13412721966
 31
0.0
  0
LINE
  5
5CA
330
1F
100
AcDbEntity
  8
KIGOU
  6
Continuous
 62
   255
370
    50
100
AcDbLine
 10
14536.9692933814
 20
13338.28610171766
 30
0.0
 11
14560.0572418094
 21
13361.37405014566
 31
0.0
  0
LINE
  5
5CB
330
1F
100
AcDbEntity
  8
KIGOU
  6
Continuous
 62
   255
370
    50
100
AcDbLine
 10
14536.9692933814
 20
13342.77622977866
 30
0.0
 11
14557.7578647884
 21
13363.56480118566
 31
0.0
  0
LINE
  5
5CC
330
1F
100
AcDbEntity
  8
KIGOU
  6
Continuous
 62
   255
370
    50
100
AcDbLine
 10
14536.9692933814
 20
13347.26635783866
 30
0.0
 11
14555.4092376224
 21
13365.70630207966
 31
0.0
  0
LINE
  5
5CD
330
1F
100
AcDbEntity
  8
KIGOU
  6
Continuous
 62
   255
370
    50
100
AcDbLine
 10
14536.9692933814
 20
13351.75648589966
 30
0.0
 11
14553.0112106224
 21
13367.79840314066
 31
0.0
  0
LINE
  5
5CE
330
1F
100
AcDbEntity
  8
KIGOU
  6
Continuous
 62
   255
370
    50
100
AcDbLine
 10
14536.9692933814
 20
13356.24661395966
 30
0.0
 11
14550.5635615904
 21
13369.84088216866
 31
0.0
  0
LINE
  5
5CF
330
1F
100
AcDbEntity
  8
KIGOU
  6
Continuous
 62
   255
370
    50
100
AcDbLine
 10
14536.9692933814
 20
13360.73674202066
 30
0.0
 11
14548.0659941854
 21
13371.83344282466
 31
0.0
  0
LINE
  5
5D0
330
1F
100
AcDbEntity
  8
KIGOU
  6
Continuous
 62
   255
370
    50
100
AcDbLine
 10
14536.9692933814
 20
13365.22687008066
 30
0.0
 11
14545.5181357334
 21
13373.77571243266
 31
0.0
  0
LINE
  5
5D1
330
1F
100
AcDbEntity
  8
KIGOU
  6
Continuous
 62
   255
370
    50
100
AcDbLine
 10
14536.9692933814
 20
13369.71699814166
 30
0.0
 11
14542.9195344234
 21
13375.66723918366
 31
0.0
  0
LINE
  5
5D2
330
1F
100
AcDbEntity
  8
KIGOU
  6
Continuous
 62
   255
370
    50
100
AcDbLine
 10
14536.9692933814
 20
13374.20712620166
 30
0.0
 11
14540.2696558514
 21
13377.50748867166
 31
0.0
  0
LINE
  5
5D3
330
1F
100
AcDbEntity
  8
KIGOU
  6
Continuous
 62
   255
370
    50
100
AcDbLine
 10
14536.9692933814
 20
13378.69725426266
 30
0.0
 11
14537.5678788414
 21
13379.29583972266
 31
0.0
  0
LINE
  5
5D4
330
1F
100
AcDbEntity
  8
KIGOU
  6
Continuous
 62
   255
370
    50
100
AcDbLine
 10
14549.4682982664
 20
13144.23921581766
 30
0.0
 11
14572.1236477734
 21
13166.89456532466
 31
0.0
  0
LINE
  5
5D5
330
1F
100
AcDbEntity
  8
KIGOU
  6
Continuous
 62
   255
370
    50
100
AcDbLine
 10
14536.9692933814
 20
13136.23033899366
 30
0.0
 11
14582.6525694244
 21
13181.91361503666
 31
0.0
  0
LINE
  5
5D6
330
1F
100
AcDbEntity
  8
KIGOU
  6
Continuous
 62
   255
370
    50
100
AcDbLine
 10
14536.9692933814
 20
13140.72046705466
 30
0.0
 11
14588.2962064934
 21
13192.04738016566
 31
0.0
  0
LINE
  5
5D7
330
1F
100
AcDbEntity
  8
KIGOU
  6
Continuous
 62
   255
370
    50
100
AcDbLine
 10
14536.9692933814
 20
13145.21059511466
 30
0.0
 11
14592.2156731644
 21
13200.45697489766
 31
0.0
  0
LINE
  5
5D8
330
1F
100
AcDbEntity
  8
KIGOU
  6
Continuous
 62
   255
370
    50
100
AcDbLine
 10
14536.9692933814
 20
13149.70072317566
 30
0.0
 11
14595.1530881484
 21
13207.88451794266
 31
0.0
  0
LINE
  5
5D9
330
1F
100
AcDbEntity
  8
KIGOU
  6
Continuous
 62
   255
370
    50
100
AcDbLine
 10
14536.9692933814
 20
13154.19085123566
 30
0.0
 11
14597.4285578294
 21
13214.65011568366
 31
0.0
  0
LINE
  5
5DA
330
1F
100
AcDbEntity
  8
KIGOU
  6
Continuous
 62
   255
370
    50
100
AcDbLine
 10
14536.9692933814
 20
13158.68097929666
 30
0.0
 11
14599.2153735994
 21
13220.92705951466
 31
0.0
  0
LINE
  5
5DB
330
1F
100
AcDbEntity
  8
KIGOU
  6
Continuous
 62
   255
370
    50
100
AcDbLine
 10
14536.9692933814
 20
13163.17110735666
 30
0.0
 11
14600.6200587724
 21
13226.82187274766
 31
0.0
  0
LINE
  5
5DC
330
1F
100
AcDbEntity
  8
KIGOU
  6
Continuous
 62
   255
370
    50
100
AcDbLine
 10
14536.9692933814
 20
13167.66123541766
 30
0.0
 11
14601.7137188904
 21
13232.40566092566
 31
0.0
  0
LINE
  5
5DD
330
1F
100
AcDbEntity
  8
SONOTA
  6
Continuous
 62
   255
370
    50
100
AcDbLine
 10
14603.8983459074
 20
13062.46451768565
 30
0.0
 11
14803.8983459074
 21
13062.46451768565
 31
0.0
  0
LINE
  5
5DE
330
1F
100
AcDbEntity
  8
SONOTA
  6
Continuous
 62
   255
370
    50
100
AcDbLine
 10
16397.6483459074
 20
14692.46451768565
 30
0.0
 11
16397.6483459074
 21
15012.46451768565
 31
0.0
  0
LINE
  5
5DF
330
1F
100
AcDbEntity
  8
SONOTA
  6
Continuous
 62
   255
370
    50
100
AcDbLine
 10
16472.6483459074
 20
13872.46451768565
 30
0.0
 11
16472.6483459074
 21
14712.46451768565
 31
0.0
  0
LINE
  5
5E0
330
1F
100
AcDbEntity
  8
SONOTA
  6
Continuous
 62
   255
370
    50
100
AcDbLine
 10
16472.6483459074
 20
13872.46451768565
 30
0.0
 11
17315.1483459074
 21
13872.46451768565
 31
0.0
  0
LINE
  5
5E1
330
1F
100
AcDbEntity
  8
SONOTA
  6
Continuous
 62
   255
370
    50
100
AcDbLine
 10
17017.6483459074
 20
13822.46451768565
 30
0.0
 11
16967.6483459074
 21
13822.46451768565
 31
0.0
  0
LINE
  5
5E2
330
1F
100
AcDbEntity
  8
SONOTA
  6
Continuous
 62
   255
370
    50
100
AcDbLine
 10
16745.1483459074
 20
14714.96451768565
 30
0.0
 11
16745.1483459074
 21
15325.10751768565
 31
0.0
  0
LINE
  5
5E3
330
1F
100
AcDbEntity
  8
SONOTA
  6
Continuous
 62
   255
370
    50
100
AcDbLine
 10
17017.6483459074
 20
14762.46451768565
 30
0.0
 11
17017.6483459074
 21
15321.92051768565
 31
0.0
  0
LINE
  5
5E4
330
1F
100
AcDbEntity
  8
SONOTA
  6
Continuous
 62
   255
370
    50
100
AcDbLine
 10
16967.6483459074
 20
14762.46451768565
 30
0.0
 11
16967.6483459074
 21
15321.92051768565
 31
0.0
  0
LINE
  5
5E5
330
1F
100
AcDbEntity
  8
SONOTA
  6
Continuous
 62
   255
370
    50
100
AcDbLine
 10
16645.1483459074
 20
15012.46451768565
 30
0.0
 11
16645.1483459074
 21
15317.53601768565
 31
0.0
  0
LINE
  5
5E6
330
1F
100
AcDbEntity
  8
SONOTA
  6
Continuous
 62
   255
370
    50
100
AcDbLine
 10
16472.6483459074
 20
14712.46451768565
 30
0.0
 11
17315.1483459074
 21
14712.46451768565
 31
0.0
  0
CIRCLE
  5
5E7
330
1F
100
AcDbEntity
  8
SONOTA
  6
Continuous
 62
   255
370
    50
100
AcDbCircle
 10
16605.8573459074
 20
14859.23551768565
 30
0.0
 40
50.0
  0
CIRCLE
  5
5E8
330
1F
100
AcDbEntity
  8
SONOTA
  6
Continuous
 62
   255
370
    50
100
AcDbCircle
 10
16605.8573459074
 20
14859.23551768565
 30
0.0
 40
75.0
  0
LINE
  5
5E9
330
1F
100
AcDbEntity
  8
SONOTA
  6
Continuous
 62
   255
370
    50
100
AcDbLine
 10
17017.6483459074
 20
14762.46451768565
 30
0.0
 11
16967.6483459074
 21
14762.46451768565
 31
0.0
  0
TEXT
  5
5EA
330
1F
100
AcDbEntity
  8
SONOTA
  6
Continuous
 62
   255
370
    25
100
AcDbText
 10
14635.1829814154
 20
16241.78937251565
 30
0.0
 40
200.0
  1
A
 41
0.5
100
AcDbText
  0
TEXT
  5
5EB
330
1F
100
AcDbEntity
  8
SONOTA
  6
Continuous
 62
   255
370
    25
100
AcDbText
 10
16825.1829814154
 20
16241.78937251565
 30
0.0
 40
200.0
  1
B
 41
0.5
100
AcDbText
  0
LINE
  5
5EC
330
1F
100
AcDbEntity
  8
KIGOU
  6
Continuous
 62
   255
370
    50
100
AcDbLine
 10
22507.2448548434
 20
4915.304654078255
 30
0.0
 11
22518.3415556474
 21
4904.207953274454
 31
0.0
  0
LINE
  5
5ED
330
1F
100
AcDbEntity
  8
KIGOU
  6
Continuous
 62
   255
370
    50
100
AcDbLine
 10
22502.7547267824
 20
4915.304654078255
 30
0.0
 11
22516.3489949914
 21
4901.710385869455
 31
0.0
  0
LINE
  5
5EE
330
1F
100
AcDbEntity
  8
KIGOU
  6
Continuous
 62
   255
370
    50
100
AcDbLine
 10
22498.2645987224
 20
4915.304654078255
 30
0.0
 11
22514.3065159634
 21
4899.262736837155
 31
0.0
  0
LINE
  5
5EF
330
1F
100
AcDbEntity
  8
KIGOU
  6
Continuous
 62
   255
370
    50
100
AcDbLine
 10
22493.7744706614
 20
4915.304654078255
 30
0.0
 11
22512.2144149024
 21
4896.864709837655
 31
0.0
  0
LINE
  5
5F0
330
1F
100
AcDbEntity
  8
KIGOU
  6
Continuous
 62
   255
370
    50
100
AcDbLine
 10
22489.2843426014
 20
4915.304654078255
 30
0.0
 11
22510.0729140084
 21
4894.516082671154
 31
0.0
  0
ARC
  5
5F1
330
1F
100
AcDbEntity
  8
KIGOU
  6
Continuous
 62
   255
370
    50
100
AcDbCircle
 10
22403.9906117494
 20
4993.393582794754
 30
0.0
 40
145.0179812412789
100
AcDbArc
 50
327.4199402095694
 51
212.5800597904299
  0
ARC
  5
5F2
330
1F
100
AcDbEntity
  8
KIGOU
  6
Continuous
 62
   255
370
    50
100
AcDbCircle
 10
22403.9906117494
 20
4993.393582794754
 30
0.0
 40
145.0179812413007
100
AcDbArc
 50
212.5800597904296
 51
327.4199402095696
  0
LINE
  5
5F3
330
1F
100
AcDbEntity
  8
KIGOU
  6
Continuous
 62
   255
370
    50
100
AcDbLine
 10
22281.7926817534
 20
4915.304654078255
 30
0.0
 11
22526.1885417444
 21
4915.304654078255
 31
0.0
  0
LINE
  5
5F4
330
1F
100
AcDbEntity
  8
KIGOU
  6
Continuous
 62
   255
370
    50
100
AcDbLine
 10
21520.4025829424
 20
5072.589542287655
 30
0.0
 11
21157.7946522564
 21
5072.589542287655
 31
0.0
  0
LINE
  5
5F5
330
1F
100
AcDbEntity
  8
KIGOU
  6
Continuous
 62
   255
370
    50
100
AcDbLine
 10
21520.4025829424
 20
4914.197623301855
 30
0.0
 11
21157.7946522564
 21
4914.197623301855
 31
0.0
  0
LINE
  5
5F6
330
1F
100
AcDbEntity
  8
KIGOU
  6
Continuous
 62
   255
370
    50
100
AcDbLine
 10
21157.7946522564
 20
5072.589542287655
 30
0.0
 11
21157.7946522564
 21
4914.197623301855
 31
0.0
  0
LINE
  5
5F7
330
1F
100
AcDbEntity
  8
KIGOU
  6
Continuous
 62
   255
370
    50
100
AcDbLine
 10
21737.5786405554
 20
4914.197623301855
 30
0.0
 11
22100.1865712414
 21
4914.197623301855
 31
0.0
  0
LINE
  5
5F8
330
1F
100
AcDbEntity
  8
KIGOU
  6
Continuous
 62
   255
370
    50
100
AcDbLine
 10
21737.5786405554
 20
5072.589542287655
 30
0.0
 11
22100.1865712414
 21
5072.589542287655
 31
0.0
  0
CIRCLE
  5
5F9
330
1F
100
AcDbEntity
  8
KIGOU
  6
Continuous
 62
   255
370
    50
100
AcDbCircle
 10
21628.9906117494
 20
4993.393582794754
 30
0.0
 40
134.4000000000015
  0
LINE
  5
5FA
330
1F
100
AcDbEntity
  8
KIGOU
  6
Continuous
 62
   255
370
    50
100
AcDbLine
 10
22100.1865712414
 20
5072.589542287655
 30
0.0
 11
22100.1865712414
 21
4914.197623301855
 31
0.0
  0
LINE
  5
5FB
330
1F
100
AcDbEntity
  8
KIGOU
  6
Continuous
 62
   255
370
    50
100
AcDbLine
 10
22372.5410130274
 20
4915.304654078255
 30
0.0
 11
22435.9129577354
 21
4851.932709370256
 31
0.0
  0
LINE
  5
5FC
330
1F
100
AcDbEntity
  8
KIGOU
  6
Continuous
 62
   255
370
    50
100
AcDbLine
 10
22368.0508849664
 20
4915.304654078255
 30
0.0
 11
22432.2081669594
 21
4851.147372085155
 31
0.0
  0
LINE
  5
5FD
330
1F
100
AcDbEntity
  8
KIGOU
  6
Continuous
 62
   255
370
    50
100
AcDbLine
 10
22363.5607569064
 20
4915.304654078255
 30
0.0
 11
22428.4177297994
 21
4850.447681184955
 31
0.0
  0
LINE
  5
5FE
330
1F
100
AcDbEntity
  8
KIGOU
  6
Continuous
 62
   255
370
    50
100
AcDbLine
 10
22359.0706288454
 20
4915.304654078255
 30
0.0
 11
22424.5368071074
 21
4849.838475816355
 31
0.0
  0
LINE
  5
5FF
330
1F
100
AcDbEntity
  8
KIGOU
  6
Continuous
 62
   255
370
    50
100
AcDbLine
 10
22354.5805007854
 20
4915.304654078255
 30
0.0
 11
22420.5598702974
 21
4849.325284566255
 31
0.0
  0
LINE
  5
600
330
1F
100
AcDbEntity
  8
KIGOU
  6
Continuous
 62
   255
370
    50
100
AcDbLine
 10
22350.0903727244
 20
4915.304654078255
 30
0.0
 11
22416.4805635614
 21
4848.914463241054
 31
0.0
  0
LINE
  5
601
330
1F
100
AcDbEntity
  8
KIGOU
  6
Continuous
 62
   255
370
    50
100
AcDbLine
 10
22345.6002446644
 20
4915.304654078255
 30
0.0
 11
22412.2915275774
 21
4848.613371164555
 31
0.0
  0
LINE
  5
602
330
1F
100
AcDbEntity
  8
KIGOU
  6
Continuous
 62
   255
370
    50
100
AcDbLine
 10
22341.1101166034
 20
4915.304654078255
 30
0.0
 11
22407.9841706464
 21
4848.430600034956
 31
0.0
  0
LINE
  5
603
330
1F
100
AcDbEntity
  8
KIGOU
  6
Continuous
 62
   255
370
    50
100
AcDbLine
 10
22336.6199885424
 20
4915.304654078255
 30
0.0
 11
22403.5483667334
 21
4848.376275887453
 31
0.0
  0
LINE
  5
604
330
1F
100
AcDbEntity
  8
KIGOU
  6
Continuous
 62
   255
370
    50
100
AcDbLine
 10
22332.1298604824
 20
4915.304654078255
 30
0.0
 11
22398.9720496024
 21
4848.462464958455
 31
0.0
  0
LINE
  5
605
330
1F
100
AcDbEntity
  8
KIGOU
  6
Continuous
 62
   255
370
    50
100
AcDbLine
 10
22327.6397324214
 20
4915.304654078255
 30
0.0
 11
22394.2406555894
 21
4848.703730910855
 31
0.0
  0
LINE
  5
606
330
1F
100
AcDbEntity
  8
KIGOU
  6
Continuous
 62
   255
370
    50
100
AcDbLine
 10
22323.1496043614
 20
4915.304654078255
 30
0.0
 11
22389.3363395284
 21
4849.117918911456
 31
0.0
  0
LINE
  5
607
330
1F
100
AcDbEntity
  8
KIGOU
  6
Continuous
 62
   255
370
    50
100
AcDbLine
 10
22318.6594763004
 20
4915.304654078255
 30
0.0
 11
22384.2368392274
 21
4849.727291151755
 31
0.0
  0
LINE
  5
608
330
1F
100
AcDbEntity
  8
KIGOU
  6
Continuous
 62
   255
370
    50
100
AcDbLine
 10
22314.1693482404
 20
4915.304654078255
 30
0.0
 11
22378.9137737484
 21
4850.560228569555
 31
0.0
  0
LINE
  5
609
330
1F
100
AcDbEntity
  8
KIGOU
  6
Continuous
 62
   255
370
    50
100
AcDbLine
 10
22309.6792201794
 20
4915.304654078255
 30
0.0
 11
22373.3299855704
 21
4851.653888687455
 31
0.0
  0
LINE
  5
60A
330
1F
100
AcDbEntity
  8
KIGOU
  6
Continuous
 62
   255
370
    50
100
AcDbLine
 10
22305.1890921194
 20
4915.304654078255
 30
0.0
 11
22367.4351723374
 21
4853.058573859955
 31
0.0
  0
LINE
  5
60B
330
1F
100
AcDbEntity
  8
KIGOU
  6
Continuous
 62
   255
370
    50
100
AcDbLine
 10
22300.6989640584
 20
4915.304654078255
 30
0.0
 11
22361.1582285064
 21
4854.845389630654
 31
0.0
  0
LINE
  5
60C
330
1F
100
AcDbEntity
  8
KIGOU
  6
Continuous
 62
   255
370
    50
100
AcDbLine
 10
22296.2088359984
 20
4915.304654078255
 30
0.0
 11
22354.3926307654
 21
4857.120859311255
 31
0.0
  0
LINE
  5
60D
330
1F
100
AcDbEntity
  8
KIGOU
  6
Continuous
 62
   255
370
    50
100
AcDbLine
 10
22291.7187079374
 20
4915.304654078255
 30
0.0
 11
22346.9650877204
 21
4860.058274295755
 31
0.0
  0
LINE
  5
60E
330
1F
100
AcDbEntity
  8
KIGOU
  6
Continuous
 62
   255
370
    50
100
AcDbLine
 10
22287.2285798774
 20
4915.304654078255
 30
0.0
 11
22338.5554929884
 21
4863.977740966455
 31
0.0
  0
LINE
  5
60F
330
1F
100
AcDbEntity
  8
KIGOU
  6
Continuous
 62
   255
370
    50
100
AcDbLine
 10
22282.7384518164
 20
4915.304654078255
 30
0.0
 11
22328.4217278594
 21
4869.621378035655
 31
0.0
  0
LINE
  5
610
330
1F
100
AcDbEntity
  8
KIGOU
  6
Continuous
 62
   255
370
    50
100
AcDbLine
 10
22290.7473286404
 20
4902.805649193555
 30
0.0
 11
22313.4026781474
 21
4880.150299686456
 31
0.0
  0
LINE
  5
611
330
1F
100
AcDbEntity
  8
KIGOU
  6
Continuous
 62
   255
370
    50
100
AcDbLine
 10
22484.7942145404
 20
4915.304654078255
 30
0.0
 11
22507.8821629684
 21
4892.216705650755
 31
0.0
  0
LINE
  5
612
330
1F
100
AcDbEntity
  8
KIGOU
  6
Continuous
 62
   255
370
    50
100
AcDbLine
 10
22480.3040864804
 20
4915.304654078255
 30
0.0
 11
22505.6422400424
 21
4889.966500516155
 31
0.0
  0
LINE
  5
613
330
1F
100
AcDbEntity
  8
KIGOU
  6
Continuous
 62
   255
370
    50
100
AcDbLine
 10
22475.81395841941
 20
4915.304654078255
 30
0.0
 11
22503.3531526294
 21
4887.765459868055
 31
0.0
  0
LINE
  5
614
330
1F
100
AcDbEntity
  8
KIGOU
  6
Continuous
 62
   255
370
    50
100
AcDbLine
 10
22471.3238303584
 20
4915.304654078255
 30
0.0
 11
22501.0148373224
 21
4885.613647114755
 31
0.0
  0
LINE
  5
615
330
1F
100
AcDbEntity
  8
KIGOU
  6
Continuous
 62
   255
370
    50
100
AcDbLine
 10
22466.8337022984
 20
4915.304654078255
 30
0.0
 11
22498.6271594464
 21
4883.511196930354
 31
0.0
  0
LINE
  5
616
330
1F
100
AcDbEntity
  8
KIGOU
  6
Continuous
 62
   255
370
    50
100
AcDbLine
 10
22462.3435742374
 20
4915.304654078255
 30
0.0
 11
22496.1899120854
 21
4881.458316230655
 31
0.0
  0
LINE
  5
617
330
1F
100
AcDbEntity
  8
KIGOU
  6
Continuous
 62
   255
370
    50
100
AcDbLine
 10
22457.8534461774
 20
4915.304654078255
 30
0.0
 11
22493.7028145704
 21
4879.455285685155
 31
0.0
  0
LINE
  5
618
330
1F
100
AcDbEntity
  8
KIGOU
  6
Continuous
 62
   255
370
    50
100
AcDbLine
 10
22453.3633181164
 20
4915.304654078255
 30
0.0
 11
22491.1655104044
 21
4877.502461790353
 31
0.0
  0
LINE
  5
619
330
1F
100
AcDbEntity
  8
KIGOU
  6
Continuous
 62
   255
370
    50
100
AcDbLine
 10
22448.8731900564
 20
4915.304654078255
 30
0.0
 11
22488.5775645944
 21
4875.600279540156
 31
0.0
  0
LINE
  5
61A
330
1F
100
AcDbEntity
  8
KIGOU
  6
Continuous
 62
   255
370
    50
100
AcDbLine
 10
22444.3830619954
 20
4915.304654078255
 30
0.0
 11
22485.9384603324
 21
4873.749255741956
 31
0.0
  0
LINE
  5
61B
330
1F
100
AcDbEntity
  8
KIGOU
  6
Continuous
 62
   255
370
    50
100
AcDbLine
 10
22439.8929339354
 20
4915.304654078255
 30
0.0
 11
22483.2475949754
 21
4871.949993037656
 31
0.0
  0
LINE
  5
61C
330
1F
100
AcDbEntity
  8
KIGOU
  6
Continuous
 62
   255
370
    50
100
AcDbLine
 10
22435.4028058744
 20
4915.304654078255
 30
0.0
 11
22480.5042752474
 21
4870.203184705556
 31
0.0
  0
LINE
  5
61D
330
1F
100
AcDbEntity
  8
KIGOU
  6
Continuous
 62
   255
370
    50
100
AcDbLine
 10
22430.9126778144
 20
4915.304654078255
 30
0.0
 11
22477.7077115564
 21
4868.509620336255
 31
0.0
  0
LINE
  5
61E
330
1F
100
AcDbEntity
  8
KIGOU
  6
Continuous
 62
   255
370
    50
100
AcDbLine
 10
22426.4225497534
 20
4915.304654078255
 30
0.0
 11
22474.8570113364
 21
4866.870192495455
 31
0.0
  0
LINE
  5
61F
330
1F
100
AcDbEntity
  8
KIGOU
  6
Continuous
 62
   255
370
    50
100
AcDbLine
 10
22421.9324216934
 20
4915.304654078255
 30
0.0
 11
22471.9511712574
 21
4865.285904513655
 31
0.0
  0
LINE
  5
620
330
1F
100
AcDbEntity
  8
KIGOU
  6
Continuous
 62
   255
370
    50
100
AcDbLine
 10
22417.4422936324
 20
4915.304654078255
 30
0.0
 11
22468.9890681394
 21
4863.757879571554
 31
0.0
  0
LINE
  5
621
330
1F
100
AcDbEntity
  8
KIGOU
  6
Continuous
 62
   255
370
    50
100
AcDbLine
 10
22412.9521655724
 20
4915.304654078255
 30
0.0
 11
22465.9694483614
 21
4862.287371288755
 31
0.0
  0
LINE
  5
622
330
1F
100
AcDbEntity
  8
KIGOU
  6
Continuous
 62
   255
370
    50
100
AcDbLine
 10
22408.4620375114
 20
4915.304654078255
 30
0.0
 11
22462.8909155194
 21
4860.875776070355
 31
0.0
  0
LINE
  5
623
330
1F
100
AcDbEntity
  8
KIGOU
  6
Continuous
 62
   255
370
    50
100
AcDbLine
 10
22403.9719094504
 20
4915.304654078255
 30
0.0
 11
22459.7519160064
 21
4859.524647522855
 31
0.0
  0
LINE
  5
624
330
1F
100
AcDbEntity
  8
KIGOU
  6
Continuous
 62
   255
370
    50
100
AcDbLine
 10
22399.4817813904
 20
4915.304654078255
 30
0.0
 11
22456.5507221414
 21
4858.235713327656
 31
0.0
  0
LINE
  5
625
330
1F
100
AcDbEntity
  8
KIGOU
  6
Continuous
 62
   255
370
    50
100
AcDbLine
 10
22394.9916533294
 20
4915.304654078255
 30
0.0
 11
22453.2854123574
 21
4857.010895050755
 31
0.0
  0
LINE
  5
626
330
1F
100
AcDbEntity
  8
KIGOU
  6
Continuous
 62
   255
370
    50
100
AcDbLine
 10
22390.5015252694
 20
4915.304654078255
 30
0.0
 11
22449.9538478554
 21
4855.852331492056
 31
0.0
  0
LINE
  5
627
330
1F
100
AcDbEntity
  8
KIGOU
  6
Continuous
 62
   255
370
    50
100
AcDbLine
 10
22386.0113972084
 20
4915.304654078255
 30
0.0
 11
22446.5536449554
 21
4854.762406331554
 31
0.0
  0
LINE
  5
628
330
1F
100
AcDbEntity
  8
KIGOU
  6
Continuous
 62
   255
370
    50
100
AcDbLine
 10
22381.5212691484
 20
4915.304654078255
 30
0.0
 11
22443.0821421894
 21
4853.743781036655
 31
0.0
  0
LINE
  5
629
330
1F
100
AcDbEntity
  8
KIGOU
  6
Continuous
 62
   255
370
    50
100
AcDbLine
 10
22377.0311410874
 20
4915.304654078255
 30
0.0
 11
22439.5363609004
 21
4852.799434265854
 31
0.0
  0
TEXT
  5
62A
330
1F
100
AcDbEntity
  8
KIGOU
  6
Continuous
 62
   255
370
    25
100
AcDbText
 10
23202.8126334974
 20
4843.393582794754
 30
0.0
 40
280.0
  1
kigou
 41
0.5
100
AcDbText
  0
ARC
  5
62B
330
1F
100
AcDbEntity
  8
KIGOU
  6
Continuous
 62
   255
370
    50
100
AcDbCircle
 10
22852.8126334974
 20
4993.393582794754
 30
0.0
 40
145.0179812413007
100
AcDbArc
 50
212.5800597897196
 51
327.4199402102901
  0
LINE
  5
62C
330
1F
100
AcDbEntity
  8
KIGOU
  6
Continuous
 62
   255
370
    50
100
AcDbLine
 10
22975.0105634934
 20
4915.304654078255
 30
0.0
 11
22730.6147035014
 21
4915.304654078255
 31
0.0
  0
LINE
  5
62D
330
1F
100
AcDbEntity
  8
KIGOU
  6
Continuous
 62
   255
370
    50
100
AcDbLine
 10
22776.4617541704
 20
4915.304654078255
 30
0.0
 11
22843.0626773374
 21
4848.703730910855
 31
0.0
  0
LINE
  5
62E
330
1F
100
AcDbEntity
  8
KIGOU
  6
Continuous
 62
   255
370
    50
100
AcDbLine
 10
22771.97162610941
 20
4915.304654078255
 30
0.0
 11
22838.1583612764
 21
4849.117918911456
 31
0.0
  0
LINE
  5
62F
330
1F
100
AcDbEntity
  8
KIGOU
  6
Continuous
 62
   255
370
    50
100
AcDbLine
 10
22767.4814980494
 20
4915.304654078255
 30
0.0
 11
22833.0588609754
 21
4849.727291151755
 31
0.0
  0
LINE
  5
630
330
1F
100
AcDbEntity
  8
KIGOU
  6
Continuous
 62
   255
370
    50
100
AcDbLine
 10
22762.9913699884
 20
4915.304654078255
 30
0.0
 11
22827.7357954974
 21
4850.560228569555
 31
0.0
  0
LINE
  5
631
330
1F
100
AcDbEntity
  8
KIGOU
  6
Continuous
 62
   255
370
    50
100
AcDbLine
 10
22758.5012419284
 20
4915.304654078255
 30
0.0
 11
22822.1520073194
 21
4851.653888687355
 31
0.0
  0
LINE
  5
632
330
1F
100
AcDbEntity
  8
KIGOU
  6
Continuous
 62
   255
370
    50
100
AcDbLine
 10
22754.0111138674
 20
4915.304654078255
 30
0.0
 11
22816.2571940854
 21
4853.058573859955
 31
0.0
  0
LINE
  5
633
330
1F
100
AcDbEntity
  8
KIGOU
  6
Continuous
 62
   255
370
    50
100
AcDbLine
 10
22749.5209858074
 20
4915.304654078255
 30
0.0
 11
22809.9802502544
 21
4854.845389630654
 31
0.0
  0
LINE
  5
634
330
1F
100
AcDbEntity
  8
KIGOU
  6
Continuous
 62
   255
370
    50
100
AcDbLine
 10
22745.0308577464
 20
4915.304654078255
 30
0.0
 11
22803.2146525134
 21
4857.120859311255
 31
0.0
  0
LINE
  5
635
330
1F
100
AcDbEntity
  8
KIGOU
  6
Continuous
 62
   255
370
    50
100
AcDbLine
 10
22740.5407296864
 20
4915.304654078255
 30
0.0
 11
22795.7871094684
 21
4860.058274295755
 31
0.0
  0
LINE
  5
636
330
1F
100
AcDbEntity
  8
KIGOU
  6
Continuous
 62
   255
370
    50
100
AcDbLine
 10
22736.0506016254
 20
4915.304654078255
 30
0.0
 11
22787.3775147374
 21
4863.977740966355
 31
0.0
  0
ARC
  5
637
330
1F
100
AcDbEntity
  8
KIGOU
  6
Continuous
 62
   255
370
    50
100
AcDbCircle
 10
22852.8126334974
 20
4993.393582794754
 30
0.0
 40
145.0179812412789
100
AcDbArc
 50
327.4199402102694
 51
212.5800597897395
  0
LINE
  5
638
330
1F
100
AcDbEntity
  8
KIGOU
  6
Continuous
 62
   255
370
    50
100
AcDbLine
 10
22525.2053670854
 20
4915.304654078255
 30
0.0
 11
22525.8039525454
 21
4914.706068618155
 31
0.0
  0
LINE
  5
639
330
1F
100
AcDbEntity
  8
KIGOU
  6
Continuous
 62
   255
370
    50
100
AcDbLine
 10
22520.7152390244
 20
4915.304654078255
 30
0.0
 11
22524.0156014944
 21
4912.004291608355
 31
0.0
  0
LINE
  5
63A
330
1F
100
AcDbEntity
  8
KIGOU
  6
Continuous
 62
   255
370
    50
100
AcDbLine
 10
22516.2251109644
 20
4915.304654078255
 30
0.0
 11
22522.1753520064
 21
4909.354413036455
 31
0.0
  0
LINE
  5
63B
330
1F
100
AcDbEntity
  8
KIGOU
  6
Continuous
 62
   255
370
    50
100
AcDbLine
 10
22511.7349829034
 20
4915.304654078255
 30
0.0
 11
22520.2838252554
 21
4906.755811726554
 31
0.0
  0
LINE
  5
63C
330
1F
100
AcDbEntity
  8
KIGOU
  6
Continuous
 62
   255
370
    50
100
AcDbLine
 10
22731.5604735654
 20
4915.304654078255
 30
0.0
 11
22777.2437496074
 21
4869.621378035655
 31
0.0
  0
LINE
  5
63D
330
1F
100
AcDbEntity
  8
KIGOU
  6
Continuous
 62
   255
370
    50
100
AcDbLine
 10
22739.5693503894
 20
4902.805649193555
 30
0.0
 11
22762.2246998964
 21
4880.150299686354
 31
0.0
  0
LINE
  5
63E
330
1F
100
AcDbEntity
  8
KIGOU
  6
Continuous
 62
   255
370
    50
100
AcDbLine
 10
22974.0273888334
 20
4915.304654078255
 30
0.0
 11
22974.6259742944
 21
4914.706068618055
 31
0.0
  0
LINE
  5
63F
330
1F
100
AcDbEntity
  8
KIGOU
  6
Continuous
 62
   255
370
    50
100
AcDbLine
 10
22969.5372607734
 20
4915.304654078255
 30
0.0
 11
22972.8376232434
 21
4912.004291608255
 31
0.0
  0
LINE
  5
640
330
1F
100
AcDbEntity
  8
KIGOU
  6
Continuous
 62
   255
370
    50
100
AcDbLine
 10
22965.0471327124
 20
4915.304654078255
 30
0.0
 11
22970.9973737544
 21
4909.354413036455
 31
0.0
  0
LINE
  5
641
330
1F
100
AcDbEntity
  8
KIGOU
  6
Continuous
 62
   255
370
    50
100
AcDbLine
 10
22960.5570046524
 20
4915.304654078255
 30
0.0
 11
22969.1058470034
 21
4906.755811726554
 31
0.0
  0
LINE
  5
642
330
1F
100
AcDbEntity
  8
KIGOU
  6
Continuous
 62
   255
370
    50
100
AcDbLine
 10
22956.0668765914
 20
4915.304654078255
 30
0.0
 11
22967.16357739539
 21
4904.207953274454
 31
0.0
  0
LINE
  5
643
330
1F
100
AcDbEntity
  8
KIGOU
  6
Continuous
 62
   255
370
    50
100
AcDbLine
 10
22951.5767485314
 20
4915.304654078255
 30
0.0
 11
22965.1710167404
 21
4901.710385869455
 31
0.0
  0
LINE
  5
644
330
1F
100
AcDbEntity
  8
KIGOU
  6
Continuous
 62
   255
370
    50
100
AcDbLine
 10
22947.0866204704
 20
4915.304654078255
 30
0.0
 11
22963.1285377114
 21
4899.262736837155
 31
0.0
  0
LINE
  5
645
330
1F
100
AcDbEntity
  8
KIGOU
  6
Continuous
 62
   255
370
    50
100
AcDbLine
 10
22942.5964924104
 20
4915.304654078255
 30
0.0
 11
22961.0364366504
 21
4896.864709837655
 31
0.0
  0
LINE
  5
646
330
1F
100
AcDbEntity
  8
KIGOU
  6
Continuous
 62
   255
370
    50
100
AcDbLine
 10
22938.1063643494
 20
4915.304654078255
 30
0.0
 11
22958.8949357564
 21
4894.516082671154
 31
0.0
  0
LINE
  5
647
330
1F
100
AcDbEntity
  8
KIGOU
  6
Continuous
 62
   255
370
    50
100
AcDbLine
 10
22933.6162362894
 20
4915.304654078255
 30
0.0
 11
22956.7041847164
 21
4892.216705650755
 31
0.0
  0
LINE
  5
648
330
1F
100
AcDbEntity
  8
KIGOU
  6
Continuous
 62
   255
370
    50
100
AcDbLine
 10
22929.1261082284
 20
4915.304654078255
 30
0.0
 11
22954.4642617904
 21
4889.966500516155
 31
0.0
  0
LINE
  5
649
330
1F
100
AcDbEntity
  8
KIGOU
  6
Continuous
 62
   255
370
    50
100
AcDbLine
 10
22924.6359801674
 20
4915.304654078255
 30
0.0
 11
22952.1751743784
 21
4887.765459867953
 31
0.0
  0
LINE
  5
64A
330
1F
100
AcDbEntity
  8
KIGOU
  6
Continuous
 62
   255
370
    50
100
AcDbLine
 10
22920.1458521074
 20
4915.304654078255
 30
0.0
 11
22949.8368590704
 21
4885.613647114755
 31
0.0
  0
LINE
  5
64B
330
1F
100
AcDbEntity
  8
KIGOU
  6
Continuous
 62
   255
370
    50
100
AcDbLine
 10
22915.6557240464
 20
4915.304654078255
 30
0.0
 11
22947.4491811944
 21
4883.511196930354
 31
0.0
  0
LINE
  5
64C
330
1F
100
AcDbEntity
  8
KIGOU
  6
Continuous
 62
   255
370
    50
100
AcDbLine
 10
22911.1655959864
 20
4915.304654078255
 30
0.0
 11
22945.0119338334
 21
4881.458316230655
 31
0.0
  0
LINE
  5
64D
330
1F
100
AcDbEntity
  8
KIGOU
  6
Continuous
 62
   255
370
    50
100
AcDbLine
 10
22906.6754679254
 20
4915.304654078255
 30
0.0
 11
22942.5248363184
 21
4879.455285685155
 31
0.0
  0
LINE
  5
64E
330
1F
100
AcDbEntity
  8
KIGOU
  6
Continuous
 62
   255
370
    50
100
AcDbLine
 10
22902.1853398654
 20
4915.304654078255
 30
0.0
 11
22939.9875321534
 21
4877.502461790255
 31
0.0
  0
LINE
  5
64F
330
1F
100
AcDbEntity
  8
KIGOU
  6
Continuous
 62
   255
370
    50
100
AcDbLine
 10
22897.6952118044
 20
4915.304654078255
 30
0.0
 11
22937.3995863424
 21
4875.600279540156
 31
0.0
  0
LINE
  5
650
330
1F
100
AcDbEntity
  8
KIGOU
  6
Continuous
 62
   255
370
    50
100
AcDbLine
 10
22893.20508374441
 20
4915.304654078255
 30
0.0
 11
22934.7604820804
 21
4873.749255741956
 31
0.0
  0
LINE
  5
651
330
1F
100
AcDbEntity
  8
KIGOU
  6
Continuous
 62
   255
370
    50
100
AcDbLine
 10
22888.7149556834
 20
4915.304654078255
 30
0.0
 11
22932.0696167244
 21
4871.949993037656
 31
0.0
  0
LINE
  5
652
330
1F
100
AcDbEntity
  8
KIGOU
  6
Continuous
 62
   255
370
    50
100
AcDbLine
 10
22884.2248276234
 20
4915.304654078255
 30
0.0
 11
22929.3262969954
 21
4870.203184705556
 31
0.0
  0
LINE
  5
653
330
1F
100
AcDbEntity
  8
KIGOU
  6
Continuous
 62
   255
370
    50
100
AcDbLine
 10
22879.7346995624
 20
4915.304654078255
 30
0.0
 11
22926.5297333044
 21
4868.509620336255
 31
0.0
  0
LINE
  5
654
330
1F
100
AcDbEntity
  8
KIGOU
  6
Continuous
 62
   255
370
    50
100
AcDbLine
 10
22875.2445715024
 20
4915.304654078255
 30
0.0
 11
22923.6790330844
 21
4866.870192495455
 31
0.0
  0
LINE
  5
655
330
1F
100
AcDbEntity
  8
KIGOU
  6
Continuous
 62
   255
370
    50
100
AcDbLine
 10
22870.7544434414
 20
4915.304654078255
 30
0.0
 11
22920.7731930064
 21
4865.285904513655
 31
0.0
  0
LINE
  5
656
330
1F
100
AcDbEntity
  8
KIGOU
  6
Continuous
 62
   255
370
    50
100
AcDbLine
 10
22866.2643153814
 20
4915.304654078255
 30
0.0
 11
22917.8110898874
 21
4863.757879571455
 31
0.0
  0
LINE
  5
657
330
1F
100
AcDbEntity
  8
KIGOU
  6
Continuous
 62
   255
370
    50
100
AcDbLine
 10
22861.7741873204
 20
4915.304654078255
 30
0.0
 11
22914.7914701104
 21
4862.287371288755
 31
0.0
  0
LINE
  5
658
330
1F
100
AcDbEntity
  8
KIGOU
  6
Continuous
 62
   255
370
    50
100
AcDbLine
 10
22857.2840592594
 20
4915.304654078255
 30
0.0
 11
22911.7129372674
 21
4860.875776070255
 31
0.0
  0
LINE
  5
659
330
1F
100
AcDbEntity
  8
KIGOU
  6
Continuous
 62
   255
370
    50
100
AcDbLine
 10
22852.7939311994
 20
4915.304654078255
 30
0.0
 11
22908.5739377544
 21
4859.524647522855
 31
0.0
  0
LINE
  5
65A
330
1F
100
AcDbEntity
  8
KIGOU
  6
Continuous
 62
   255
370
    50
100
AcDbLine
 10
22848.3038031384
 20
4915.304654078255
 30
0.0
 11
22905.3727438894
 21
4858.235713327656
 31
0.0
  0
LINE
  5
65B
330
1F
100
AcDbEntity
  8
KIGOU
  6
Continuous
 62
   255
370
    50
100
AcDbLine
 10
22843.8136750784
 20
4915.304654078255
 30
0.0
 11
22902.1074341054
 21
4857.010895050755
 31
0.0
  0
LINE
  5
65C
330
1F
100
AcDbEntity
  8
KIGOU
  6
Continuous
 62
   255
370
    50
100
AcDbLine
 10
22839.3235470174
 20
4915.304654078255
 30
0.0
 11
22898.77586960441
 21
4855.852331492056
 31
0.0
  0
LINE
  5
65D
330
1F
100
AcDbEntity
  8
KIGOU
  6
Continuous
 62
   255
370
    50
100
AcDbLine
 10
22834.8334189574
 20
4915.304654078255
 30
0.0
 11
22895.3756667034
 21
4854.762406331554
 31
0.0
  0
LINE
  5
65E
330
1F
100
AcDbEntity
  8
KIGOU
  6
Continuous
 62
   255
370
    50
100
AcDbLine
 10
22830.3432908964
 20
4915.304654078255
 30
0.0
 11
22891.9041639384
 21
4853.743781036555
 31
0.0
  0
LINE
  5
65F
330
1F
100
AcDbEntity
  8
KIGOU
  6
Continuous
 62
   255
370
    50
100
AcDbLine
 10
22825.8531628364
 20
4915.304654078255
 30
0.0
 11
22888.3583826484
 21
4852.799434265755
 31
0.0
  0
LINE
  5
660
330
1F
100
AcDbEntity
  8
KIGOU
  6
Continuous
 62
   255
370
    50
100
AcDbLine
 10
22821.3630347754
 20
4915.304654078255
 30
0.0
 11
22884.7349794834
 21
4851.932709370155
 31
0.0
  0
LINE
  5
661
330
1F
100
AcDbEntity
  8
KIGOU
  6
Continuous
 62
   255
370
    50
100
AcDbLine
 10
22816.8729067154
 20
4915.304654078255
 30
0.0
 11
22881.0301887084
 21
4851.147372085155
 31
0.0
  0
LINE
  5
662
330
1F
100
AcDbEntity
  8
KIGOU
  6
Continuous
 62
   255
370
    50
100
AcDbLine
 10
22812.3827786544
 20
4915.304654078255
 30
0.0
 11
22877.2397515474
 21
4850.447681184853
 31
0.0
  0
LINE
  5
663
330
1F
100
AcDbEntity
  8
KIGOU
  6
Continuous
 62
   255
370
    50
100
AcDbLine
 10
22807.8926505944
 20
4915.304654078255
 30
0.0
 11
22873.3588288564
 21
4849.838475816255
 31
0.0
  0
LINE
  5
664
330
1F
100
AcDbEntity
  8
KIGOU
  6
Continuous
 62
   255
370
    50
100
AcDbLine
 10
22803.4025225334
 20
4915.304654078255
 30
0.0
 11
22869.3818920454
 21
4849.325284566155
 31
0.0
  0
LINE
  5
665
330
1F
100
AcDbEntity
  8
KIGOU
  6
Continuous
 62
   255
370
    50
100
AcDbLine
 10
22798.9123944734
 20
4915.304654078255
 30
0.0
 11
22865.3025853104
 21
4848.914463241054
 31
0.0
  0
LINE
  5
666
330
1F
100
AcDbEntity
  8
KIGOU
  6
Continuous
 62
   255
370
    50
100
AcDbLine
 10
22794.4222664124
 20
4915.304654078255
 30
0.0
 11
22861.1135493264
 21
4848.613371164455
 31
0.0
  0
LINE
  5
667
330
1F
100
AcDbEntity
  8
KIGOU
  6
Continuous
 62
   255
370
    50
100
AcDbLine
 10
22789.9321383514
 20
4915.304654078255
 30
0.0
 11
22856.8061923954
 21
4848.430600034855
 31
0.0
  0
LINE
  5
668
330
1F
100
AcDbEntity
  8
KIGOU
  6
Continuous
 62
   255
370
    50
100
AcDbLine
 10
22785.4420102914
 20
4915.304654078255
 30
0.0
 11
22852.3703884824
 21
4848.376275887453
 31
0.0
  0
LINE
  5
669
330
1F
100
AcDbEntity
  8
KIGOU
  6
Continuous
 62
   255
370
    50
100
AcDbLine
 10
22780.9518822304
 20
4915.304654078255
 30
0.0
 11
22847.7940713504
 21
4848.462464958455
 31
0.0
  0
LINE
  5
66A
330
1F
100
AcDbEntity
  8
KIGOU
  6
Continuous
 62
   255
370
    50
100
AcDbLine
 10
22912.8126334974
 20
4915.304654078255
 30
0.0
 11
22912.8126334974
 21
5125.417121920555
 31
0.0
  0
LINE
  5
66B
330
1F
100
AcDbEntity
  8
KIGOU
  6
Continuous
 62
   255
370
    50
100
AcDbLine
 10
22792.8126334974
 20
4915.304654078255
 30
0.0
 11
22792.8126334974
 21
5125.417121920555
 31
0.0
  0
LINE
  5
66C
330
1F
100
AcDbEntity
  8
SONOTA
  6
Continuous
 62
   255
370
    50
100
AcDbLine
 10
10201.5753459074
 20
9246.562517685055
 30
0.0
 11
10201.5753459074
 21
8686.811517685956
 31
0.0
  0
ARC
  5
66D
330
1F
100
AcDbEntity
  8
SONOTA
  6
Continuous
 62
   255
370
    50
100
AcDbCircle
 10
9649.183344270501
 20
11543.93265874065
 30
0.0
 40
250.0000199999995
100
AcDbArc
 50
32.63347000063518
 51
45.01603000073093
  0
ARC
  5
66E
330
1F
100
AcDbEntity
  8
SONOTA
  6
Continuous
 62
   255
370
    50
100
AcDbCircle
 10
9438.647344270401
 20
11409.11665873966
 30
0.0
 40
500.0000500000006
100
AcDbArc
 50
25.10838999989191
 51
32.63347000063899
  0
TEXT
  5
66F
330
1F
100
AcDbEntity
  8
MOJI
  6
Continuous
 62
   255
370
    25
100
AcDbText
 10
5593.649613958001
 20
2528.939804002955
 30
0.0
 40
400.0
  1
マンション住戸 電気設備図(1)　
100
AcDbText
  0
LINE
  5
670
330
1F
100
AcDbEntity
  8
SONOTA
  6
Continuous
 62
   255
370
    50
100
AcDbLine
 10
14923.8983459074
 20
6069.405502750955
 30
0.0
 11
14803.8983459074
 21
6069.405502750955
 31
0.0
  0
LINE
  5
671
330
1F
100
AcDbEntity
  8
SONOTA
  6
Continuous
 62
   255
370
    50
100
AcDbLine
 10
16422.6483459074
 20
6206.905502750955
 30
0.0
 11
16422.6483459074
 21
6156.905502750956
 31
0.0
  0
LINE
  5
672
330
1F
100
AcDbEntity
  8
SONOTA
  6
Continuous
 62
   255
370
    50
100
AcDbLine
 10
14973.8983459074
 20
6206.905502750955
 30
0.0
 11
14973.8983459074
 21
6156.905502750956
 31
0.0
  0
LINE
  5
673
330
1F
100
AcDbEntity
  8
SONOTA
  6
Continuous
 62
   255
370
    50
100
AcDbLine
 10
16422.6483459074
 20
14027.96451768565
 30
0.0
 11
16422.6483459074
 21
13977.96451768565
 31
0.0
  0
LINE
  5
674
330
1F
100
AcDbEntity
  8
SONOTA
  6
Continuous
 62
   255
370
    50
100
AcDbLine
 10
14853.8983459074
 20
14027.96451768565
 30
0.0
 11
14853.8983459074
 21
13977.96451768565
 31
0.0
  0
VIEWPORT
  5
2A
330
1B
100
AcDbEntity
 67
     1
  8
0
100
AcDbViewport
 10
14850.0
 20
10500.0
 30
0.0
 40
29700.0
 41
21000.0
 68
     1
 69
     1
 12
14850.0
 22
10500.0
 13
0.0
 23
0.0
 14
0.5
 24
0.5
 15
0.5
 25
0.5
 16
0.0
 26
0.0
 36
1.0
 17
0.0
 27
0.0
 37
0.0
 42
50.0
 43
0.0
 44
0.0
 45
9.0
 50
0.0
 51
0.0
 72
   100
 90
    32800
  1

281
     0
 71
     1
 74
     0
110
0.0
120
0.0
130
0.0
111
1.0
121
0.0
131
0.0
112
0.0
122
1.0
132
0.0
 79
     0
146
0.0
  0
ENDSEC
  0
SECTION
  2
OBJECTS
  0
DICTIONARY
  5
C
330
0
100
AcDbDictionary
281
     1
  3
ACAD_GROUP
350
D
  3
ACAD_LAYOUT
350
1A
  3
ACAD_MLINESTYLE
350
17
  3
ACAD_PLOTSETTINGS
350
19
  3
ACAD_PLOTSTYLENAME
350
E
  3
AcDbVariableDictionary
350
675
  0
DICTIONARY
  5
D
102
{ACAD_REACTORS
330
C
102
}
330
C
100
AcDbDictionary
281
     1
  0
DICTIONARY
  5
1A
102
{ACAD_REACTORS
330
C
102
}
330
C
100
AcDbDictionary
281
     1
  3
Layout1
350
1E
  3
Layout2
350
26
  3
Model
350
22
  0
DICTIONARY
  5
17
102
{ACAD_REACTORS
330
C
102
}
330
C
100
AcDbDictionary
281
     1
  3
Standard
350
18
  0
DICTIONARY
  5
19
102
{ACAD_REACTORS
330
C
102
}
330
C
100
AcDbDictionary
281
     1
  0
ACDBDICTIONARYWDFLT
  5
E
102
{ACAD_REACTORS
330
C
102
}
330
C
100
AcDbDictionary
281
     1
  3
Normal
350
F
100
AcDbDictionaryWithDefault
340
F
  0
DICTIONARY
  5
675
102
{ACAD_REACTORS
330
C
102
}
330
C
100
AcDbDictionary
281
     1
  3
DIMASSOC
350
676
  0
LAYOUT
  5
1E
102
{ACAD_REACTORS
330
1A
102
}
330
1A
100
AcDbPlotSettings
  1

  2

  4

  6

 40
0.0
 41
0.0
 42
0.0
 43
0.0
 44
0.0
 45
0.0
 46
0.0
 47
0.0
 48
0.0
 49
0.0
140
0.0
141
0.0
142
1.0
143
1.0
 70
   688
 72
     0
 73
     0
 74
     5
  7

 75
    16
147
1.0
148
0.0
149
0.0
100
AcDbLayout
  1
Layout1
 70
     1
 71
     1
 10
0.0
 20
0.0
 11
297.0
 21
210.0
 12
0.0
 22
0.0
 32
0.0
 14
0.0
 24
0.0
 34
0.0
 15
297.0
 25
210.0
 35
0.0
146
0.0
 13
0.0
 23
0.0
 33
0.0
 16
1.0
 26
0.0
 36
0.0
 17
0.0
 27
1.0
 37
0.0
 76
     0
330
1B
331
2A
  0
LAYOUT
  5
26
102
{ACAD_REACTORS
330
1A
102
}
330
1A
100
AcDbPlotSettings
  1

  2

  4

  6

 40
0.0
 41
0.0
 42
0.0
 43
0.0
 44
0.0
 45
0.0
 46
0.0
 47
0.0
 48
0.0
 49
0.0
140
0.0
141
0.0
142
1.0
143
1.0
 70
   688
 72
     0
 73
     0
 74
     5
  7

 75
    16
147
1.0
148
0.0
149
0.0
100
AcDbLayout
  1
Layout2
 70
     1
 71
     2
 10
0.0
 20
0.0
 11
0.0
 21
0.0
 12
0.0
 22
0.0
 32
0.0
 14
0.0
 24
0.0
 34
0.0
 15
0.0
 25
0.0
 35
0.0
146
0.0
 13
0.0
 23
0.0
 33
0.0
 16
1.0
 26
0.0
 36
0.0
 17
0.0
 27
1.0
 37
0.0
 76
     0
330
23
  0
LAYOUT
  5
22
102
{ACAD_REACTORS
330
1A
102
}
330
1A
100
AcDbPlotSettings
  1

  2

  4

  6

 40
0.0
 41
0.0
 42
0.0
 43
0.0
 44
0.0
 45
0.0
 46
0.0
 47
0.0
 48
0.0
 49
0.0
140
0.0
141
0.0
142
1.0
143
1.0
 70
  1712
 72
     0
 73
     0
 74
     0
  7

 75
     0
147
1.0
148
0.0
149
0.0
100
AcDbLayout
  1
Model
 70
     1
 71
     0
 10
0.0
 20
0.0
 11
29700.0
 21
21000.0
 12
0.0
 22
0.0
 32
0.0
 14
0.0
 24
0.0
 34
0.0
 15
29700.0
 25
21000.0
 35
0.0
146
0.0
 13
0.0
 23
0.0
 33
0.0
 16
1.0
 26
0.0
 36
0.0
 17
0.0
 27
1.0
 37
0.0
 76
     0
330
1F
  0
MLINESTYLE
  5
18
102
{ACAD_REACTORS
330
17
102
}
330
17
100
AcDbMlineStyle
  2
Standard
 70
     0
  3

 62
   256
 51
90.0
 52
90.0
 71
     2
 49
0.5
 62
   256
  6
BYLAYER
 49
-0.5
 62
   256
  6
BYLAYER
  0
ACDBPLACEHOLDER
  5
F
102
{ACAD_REACTORS
330
E
102
}
330
E
  0
DICTIONARYVAR
  5
676
102
{ACAD_REACTORS
330
675
102
}
330
675
100
DictionaryVariables
280
     0
  1
1
  0
ENDSEC
  0
EOF
