  0
SECTION
  2
HEADER
  9
$ACADVER
  1
AC1015
  9
$ACADMAINTVER
 70
     6
  9
$DWGCODEPAGE
  3
ANSI_932
  9
$INSBASE
 10
0.0
 20
0.0
 30
0.0
  9
$EXTMIN
 10
0.0
 20
0.0
 30
0.0
  9
$EXTMAX
 10
1485.0
 20
1050.0
 30
0.0
  9
$LIMMIN
 10
0.0
 20
0.0
  9
$LIMMAX
 10
1485.0
 20
1050.0
  9
$ORTHOMODE
 70
     0
  9
$REGENMODE
 70
     1
  9
$FILLMODE
 70
     1
  9
$QTEXTMODE
 70
     0
  9
$MIRRTEXT
 70
     1
  9
$LTSCALE
 40
1.25
  9
$ATTMODE
 70
     1
  9
$TEXTSIZE
 40
25.0
  9
$TRACEWID
 40
0.05
  9
$TEXTSTYLE
  7
Standard
  9
$CLAYER
  8
0
  9
$CELTYPE
  6
ByLayer
  9
$CECOLOR
 62
   256
  9
$CELTSCALE
 40
1.0
  9
$DISPSILH
 70
     0
  9
$DIMSCALE
 40
5.0
  9
$DIMASZ
 40
5.0
  9
$DIMEXO
 40
2.0
  9
$DIMDLI
 40
10.0
  9
$DIMRND
 40
0.0
  9
$DIMDLE
 40
0.0
  9
$DIMEXE
 40
2.0
  9
$DIMTP
 40
0.0
  9
$DIMTM
 40
0.0
  9
$DIMTXT
 40
5.0
  9
$DIMCEN
 40
0.09
  9
$DIMTSZ
 40
0.0
  9
$DIMTOL
 70
     0
  9
$DIMLIM
 70
     0
  9
$DIMTIH
 70
     0
  9
$DIMTOH
 70
     0
  9
$DIMSE1
 70
     0
  9
$DIMSE2
 70
     0
  9
$DIMTAD
 70
     3
  9
$DIMZIN
 70
     8
  9
$DIMBLK
  1

  9
$DIMASO
 70
     1
  9
$DIMSHO
 70
     1
  9
$DIMPOST
  1

  9
$DIMAPOST
  1

  9
$DIMALT
 70
     0
  9
$DIMALTD
 70
     2
  9
$DIMALTF
 40
25.4
  9
$DIMLFAC
 40
1.0
  9
$DIMTOFL
 70
     1
  9
$DIMTVP
 40
0.7
  9
$DIMTIX
 70
     0
  9
$DIMSOXD
 70
     0
  9
$DIMSAH
 70
     0
  9
$DIMBLK1
  1

  9
$DIMBLK2
  1

  9
$DIMSTYLE
  2
Standard
  9
$DIMCLRD
 70
     0
  9
$DIMCLRE
 70
     0
  9
$DIMCLRT
 70
     0
  9
$DIMTFAC
 40
0.5
  9
$DIMGAP
 40
0.09
  9
$DIMJUST
 70
     0
  9
$DIMSD1
 70
     0
  9
$DIMSD2
 70
     0
  9
$DIMTOLJ
 70
     1
  9
$DIMTZIN
 70
     8
  9
$DIMALTZ
 70
     0
  9
$DIMALTTZ
 70
     0
  9
$DIMUPT
 70
     1
  9
$DIMDEC
 70
     2
  9
$DIMTDEC
 70
     4
  9
$DIMALTU
 70
     2
  9
$DIMALTTD
 70
     2
  9
$DIMTXSTY
  7
Standard
  9
$DIMAUNIT
 70
     0
  9
$DIMADEC
 70
     0
  9
$DIMALTRND
 40
0.0
  9
$DIMAZIN
 70
     0
  9
$DIMDSEP
 70
    46
  9
$DIMATFIT
 70
     2
  9
$DIMFRAC
 70
     0
  9
$DIMLDRBLK
  1

  9
$DIMLUNIT
 70
     2
  9
$DIMLWD
 70
    -2
  9
$DIMLWE
 70
    -2
  9
$DIMTMOVE
 70
     2
  9
$LUNITS
 70
     2
  9
$LUPREC
 70
     4
  9
$SKETCHINC
 40
0.1
  9
$FILLETRAD
 40
0.5
  9
$AUNITS
 70
     0
  9
$AUPREC
 70
     0
  9
$MENU
  1
.
  9
$ELEVATION
 40
0.0
  9
$PELEVATION
 40
0.0
  9
$THICKNESS
 40
0.0
  9
$LIMCHECK
 70
     0
  9
$CHAMFERA
 40
0.5
  9
$CHAMFERB
 40
0.5
  9
$CHAMFERC
 40
1.0
  9
$CHAMFERD
 40
0.0
  9
$SKPOLY
 70
     0
  9
$TDCREATE
 40
2454270.281365741
  9
$TDUCREATE
 40
2454269.906365741
  9
$TDUPDATE
 40
2454270.281365741
  9
$TDUUPDATE
 40
2454269.906365741
  9
$TDINDWG
 40
0.0000000116
  9
$TDUSRTIMER
 40
0.0000000116
  9
$USRTIMER
 70
     1
  9
$ANGBASE
 50
0.0
  9
$ANGDIR
 70
     0
  9
$PDMODE
 70
     0
  9
$PDSIZE
 40
0.0
  9
$PLINEWID
 40
0.0
  9
$SPLFRAME
 70
     0
  9
$SPLINETYPE
 70
     6
  9
$SPLINESEGS
 70
     8
  9
$HANDSEED
  5
E4
  9
$SURFTAB1
 70
     6
  9
$SURFTAB2
 70
     6
  9
$SURFTYPE
 70
     6
  9
$SURFU
 70
     6
  9
$SURFV
 70
     6
  9
$UCSBASE
  2

  9
$UCSNAME
  2

  9
$UCSORG
 10
0.0
 20
0.0
 30
0.0
  9
$UCSXDIR
 10
1.0
 20
0.0
 30
0.0
  9
$UCSYDIR
 10
0.0
 20
1.0
 30
0.0
  9
$UCSORTHOREF
  2

  9
$UCSORTHOVIEW
 70
     0
  9
$UCSORGTOP
 10
0.0
 20
0.0
 30
0.0
  9
$UCSORGBOTTOM
 10
0.0
 20
0.0
 30
0.0
  9
$UCSORGLEFT
 10
0.0
 20
0.0
 30
0.0
  9
$UCSORGRIGHT
 10
0.0
 20
0.0
 30
0.0
  9
$UCSORGFRONT
 10
0.0
 20
0.0
 30
0.0
  9
$UCSORGBACK
 10
0.0
 20
0.0
 30
0.0
  9
$PUCSBASE
  2

  9
$PUCSNAME
  2

  9
$PUCSORG
 10
0.0
 20
0.0
 30
0.0
  9
$PUCSXDIR
 10
1.0
 20
0.0
 30
0.0
  9
$PUCSYDIR
 10
0.0
 20
1.0
 30
0.0
  9
$PUCSORTHOREF
  2

  9
$PUCSORTHOVIEW
 70
     0
  9
$PUCSORGTOP
 10
0.0
 20
0.0
 30
0.0
  9
$PUCSORGBOTTOM
 10
0.0
 20
0.0
 30
0.0
  9
$PUCSORGLEFT
 10
0.0
 20
0.0
 30
0.0
  9
$PUCSORGRIGHT
 10
0.0
 20
0.0
 30
0.0
  9
$PUCSORGFRONT
 10
0.0
 20
0.0
 30
0.0
  9
$PUCSORGBACK
 10
0.0
 20
0.0
 30
0.0
  9
$USERI1
 70
     0
  9
$USERI2
 70
     0
  9
$USERI3
 70
     0
  9
$USERI4
 70
     0
  9
$USERI5
 70
     0
  9
$USERR1
 40
0.0
  9
$USERR2
 40
0.0
  9
$USERR3
 40
0.0
  9
$USERR4
 40
0.0
  9
$USERR5
 40
0.0
  9
$WORLDVIEW
 70
     1
  9
$SHADEDGE
 70
     3
  9
$SHADEDIF
 70
    70
  9
$TILEMODE
 70
     1
  9
$MAXACTVP
 70
    64
  9
$PINSBASE
 10
0.0
 20
0.0
 30
0.0
  9
$PLIMCHECK
 70
     0
  9
$PEXTMIN
 10
0.0
 20
0.0
 30
0.0
  9
$PEXTMAX
 10
297.0
 20
210.0
 30
0.0
  9
$PLIMMIN
 10
0.0
 20
0.0
  9
$PLIMMAX
 10
297.0
 20
210.0
  9
$UNITMODE
 70
     0
  9
$VISRETAIN
 70
     1
  9
$PLINEGEN
 70
     0
  9
$PSLTSCALE
 70
     1
  9
$TREEDEPTH
 70
  3020
  9
$CMLSTYLE
  2
Standard
  9
$CMLJUST
 70
     0
  9
$CMLSCALE
 40
1.0
  9
$PROXYGRAPHICS
 70
     1
  9
$MEASUREMENT
 70
     1
  9
$CELWEIGHT
370
    -1
  9
$ENDCAPS
280
     0
  9
$JOINSTYLE
280
     0
  9
$LWDISPLAY
290
     0
  9
$INSUNITS
 70
     1
  9
$HYPERLINKBASE
  1

  9
$STYLESHEET
  1

  9
$XEDIT
290
     1
  9
$CEPSNTYPE
380
     0
  9
$PSTYLEMODE
290
     1
  9
$FINGERPRINTGUID
  2
{2144E7F1-6975-41A9-9B0D-CCA1061E1CDA}
  9
$VERSIONGUID
  2
{FAEB1C32-E019-11D5-929B-00C0DF256EC4}
  9
$EXTNAMES
290
     1
  9
$PSVPSCALE
 40
0.0
  9
$OLESTARTUP
290
     0
  0
ENDSEC
  0
SECTION
  2
CLASSES
  0
CLASS
  1
ACDBDICTIONARYWDFLT
  2
AcDbDictionaryWithDefault
  3
ObjectDBX Classes
 90
        0
280
     0
281
     0
  0
CLASS
  1
DICTIONARYVAR
  2
AcDbDictionaryVar
  3
ObjectDBX Classes
 90
        0
280
     0
281
     0
  0
CLASS
  1
ACDBPLACEHOLDER
  2
AcDbPlaceHolder
  3
ObjectDBX Classes
 90
        0
280
     0
281
     0
  0
CLASS
  1
LAYOUT
  2
AcDbLayout
  3
ObjectDBX Classes
 90
        0
280
     0
281
     0
  0
ENDSEC
  0
SECTION
  2
TABLES
  0
TABLE
  2
VPORT
  5
8
330
0
100
AcDbSymbolTable
 70
     1
  0
VPORT
  5
29
330
8
100
AcDbSymbolTableRecord
100
AcDbViewportTableRecord
  2
*Active
 70
     0
 10
0.0
 20
0.0
 11
1.0
 21
1.0
 12
10.42990654205607
 22
4.5
 13
0.0
 23
0.0
 14
0.5
 24
0.5
 15
0.5
 25
0.5
 16
0.0
 26
0.0
 36
1.0
 17
0.0
 27
0.0
 37
0.0
 40
9.0
 41
1.972972972850329
 42
50.0
 43
0.0
 44
0.0
 50
0.0
 51
0.0
 71
     0
 72
   100
 73
     1
 74
     3
 75
     0
 76
     0
 77
     0
 78
     0
281
     0
 65
     1
110
0.0
120
0.0
130
0.0
111
1.0
121
0.0
131
0.0
112
0.0
122
1.0
132
0.0
 79
     0
146
0.0
  0
ENDTAB
  0
TABLE
  2
LTYPE
  5
5
330
0
100
AcDbSymbolTable
 70
     8
  0
LTYPE
  5
14
330
5
100
AcDbSymbolTableRecord
100
AcDbLinetypeTableRecord
  2
ByBlock
 70
     0
  3

 72
    65
 73
     0
 40
0.0
  0
LTYPE
  5
15
330
5
100
AcDbSymbolTableRecord
100
AcDbLinetypeTableRecord
  2
ByLayer
 70
     0
  3

 72
    65
 73
     0
 40
0.0
  0
LTYPE
  5
16
330
5
100
AcDbSymbolTableRecord
100
AcDbLinetypeTableRecord
  2
Continuous
 70
     0
  3
Solid line
 72
    65
 73
     0
 40
0.0
  0
LTYPE
  5
68
330
5
100
AcDbSymbolTableRecord
100
AcDbLinetypeTableRecord
  2
DOT
 70
     0
  3
Dot . . . . . . . . . . . . . . . . . . . . . .
 72
    65
 73
     2
 40
6.35
 49
0.0
 74
     0
 49
-6.35
 74
     0
  0
LTYPE
  5
69
330
5
100
AcDbSymbolTableRecord
100
AcDbLinetypeTableRecord
  2
HIDDEN
 70
     0
  3
Hidden __ __ __ __ __ __ __ __ __ __ __ __ __ _
 72
    65
 73
     2
 40
9.525
 49
6.35
 74
     0
 49
-3.175
 74
     0
  0
LTYPE
  5
6A
330
5
100
AcDbSymbolTableRecord
100
AcDbLinetypeTableRecord
  2
HIDDEN2
 70
     0
  3
Hidden (.5x) _ _ _ _ _ _ _ _ _ _ _ _ _ _ _ _ _
 72
    65
 73
     2
 40
4.7625
 49
3.175
 74
     0
 49
-1.5875
 74
     0
  0
LTYPE
  5
6B
330
5
100
AcDbSymbolTableRecord
100
AcDbLinetypeTableRecord
  2
CENTER
 70
     0
  3
Center ____ _ ____ _ ____ _ ____ _ ____ _ ____
 72
    65
 73
     4
 40
50.8
 49
31.75
 74
     0
 49
-6.35
 74
     0
 49
6.35
 74
     0
 49
-6.35
 74
     0
  0
LTYPE
  5
6C
330
5
100
AcDbSymbolTableRecord
100
AcDbLinetypeTableRecord
  2
CENTER2
 70
     0
  3
Center (.5x) ___ _ ___ _ ___ _ ___ _ ___ _ ___
 72
    65
 73
     4
 40
28.575
 49
19.05
 74
     0
 49
-3.175
 74
     0
 49
3.175
 74
     0
 49
-3.175
 74
     0
  0
LTYPE
  5
6D
330
5
100
AcDbSymbolTableRecord
100
AcDbLinetypeTableRecord
  2
PHANTOM
 70
     0
  3
Phantom ______  __  __  ______  __  __  ______
 72
    65
 73
     6
 40
63.5
 49
31.75
 74
     0
 49
-6.35
 74
     0
 49
6.35
 74
     0
 49
-6.35
 74
     0
 49
6.35
 74
     0
 49
-6.35
 74
     0
  0
LTYPE
  5
6E
330
5
100
AcDbSymbolTableRecord
100
AcDbLinetypeTableRecord
  2
PHANTOM2
 70
     0
  3
Phantom (.5x) ___ _ _ ___ _ _ ___ _ _ ___ _ _
 72
    65
 73
     6
 40
31.75
 49
15.875
 74
     0
 49
-3.175
 74
     0
 49
3.175
 74
     0
 49
-3.175
 74
     0
 49
3.175
 74
     0
 49
-3.175
 74
     0
  0
ENDTAB
  0
TABLE
  2
LAYER
  5
2
330
0
100
AcDbSymbolTable
 70
    15
  0
LAYER
  5
10
330
2
100
AcDbSymbolTableRecord
100
AcDbLayerTableRecord
  2
0
 70
     0
 62
   255
  6
Continuous
370
    50
390
F
  0
LAYER
  5
6F
330
2
100
AcDbSymbolTableRecord
100
AcDbLayerTableRecord
  2
object
 70
     0
 62
   255
  6
Continuous
370
    50
390
F
  0
LAYER
  5
70
330
2
100
AcDbSymbolTableRecord
100
AcDbLayerTableRecord
  2
center
 70
     0
 62
     1
  6
CENTER
370
    25
390
F
  0
LAYER
  5
71
330
2
100
AcDbSymbolTableRecord
100
AcDbLayerTableRecord
  2
hidden
 70
     0
 62
   255
  6
HIDDEN
370
    25
390
F
  0
LAYER
  5
72
330
2
100
AcDbSymbolTableRecord
100
AcDbLayerTableRecord
  2
phantom
 70
     0
 62
   255
  6
PHANTOM
370
    25
390
F
  0
LAYER
  5
73
330
2
100
AcDbSymbolTableRecord
100
AcDbLayerTableRecord
  2
dim
 70
     0
 62
   255
  6
Continuous
370
    25
390
F
  0
LAYER
  5
74
330
2
100
AcDbSymbolTableRecord
100
AcDbLayerTableRecord
  2
解答枠
 70
     0
 62
   255
  6
Continuous
370
    50
390
F
  0
LAYER
  5
75
330
2
100
AcDbSymbolTableRecord
100
AcDbLayerTableRecord
  2
太い実線
 70
     0
 62
   255
  6
Continuous
370
    50
390
F
  0
LAYER
  5
76
330
2
100
AcDbSymbolTableRecord
100
AcDbLayerTableRecord
  2
細い実線
 70
     0
 62
   255
  6
Continuous
370
    50
390
F
  0
LAYER
  5
77
330
2
100
AcDbSymbolTableRecord
100
AcDbLayerTableRecord
  2
細い破線
 70
     0
 62
   255
  6
HIDDEN
370
    50
390
F
  0
LAYER
  5
78
330
2
100
AcDbSymbolTableRecord
100
AcDbLayerTableRecord
  2
文字
 70
     0
 62
   255
  6
Continuous
370
    50
390
F
  0
LAYER
  5
79
330
2
100
AcDbSymbolTableRecord
100
AcDbLayerTableRecord
  2
細い一点鎖線
 70
     0
 62
   255
  6
CENTER
370
    50
390
F
  0
LAYER
  5
7A
330
2
100
AcDbSymbolTableRecord
100
AcDbLayerTableRecord
  2
MOJI
 70
     0
 62
   255
  6
Continuous
370
    50
390
F
  0
LAYER
  5
7B
330
2
100
AcDbSymbolTableRecord
100
AcDbLayerTableRecord
  2
WAKU
 70
     0
 62
   255
  6
Continuous
370
    50
390
F
  0
LAYER
  5
7C
330
2
100
AcDbSymbolTableRecord
100
AcDbLayerTableRecord
  2
HAGURUMA
 70
     0
 62
   255
  6
Continuous
370
    50
390
F
  0
ENDTAB
  0
TABLE
  2
STYLE
  5
3
330
0
100
AcDbSymbolTable
 70
     2
  0
STYLE
  5
11
330
3
100
AcDbSymbolTableRecord
100
AcDbTextStyleTableRecord
  2
Standard
 70
     0
 40
0.0
 41
1.0
 50
0.0
 71
     0
 42
0.2
  3
txt
  4
bigfont
  0
STYLE
  5
2C
330
3
100
AcDbSymbolTableRecord
100
AcDbTextStyleTableRecord
  2
T_STANDARD
 70
     4
 40
10.0
 41
1.0
 50
0.0
 71
     0
 42
10.0
  3
txt
  4
bigfont
  0
ENDTAB
  0
TABLE
  2
VIEW
  5
6
330
0
100
AcDbSymbolTable
 70
     0
  0
ENDTAB
  0
TABLE
  2
UCS
  5
7
330
0
100
AcDbSymbolTable
 70
     0
  0
ENDTAB
  0
TABLE
  2
APPID
  5
9
330
0
100
AcDbSymbolTable
 70
     2
  0
APPID
  5
12
330
9
100
AcDbSymbolTableRecord
100
AcDbRegAppTableRecord
  2
ACAD
 70
     0
  0
APPID
  5
2B
330
9
100
AcDbSymbolTableRecord
100
AcDbRegAppTableRecord
  2
ODA
 70
     0
  0
ENDTAB
  0
TABLE
  2
DIMSTYLE
  5
A
330
0
100
AcDbSymbolTable
 70
     1
100
AcDbDimStyleTable
  0
DIMSTYLE
105
27
330
A
100
AcDbSymbolTableRecord
100
AcDbDimStyleTableRecord
  2
Standard
 70
     0
340
11
  0
ENDTAB
  0
TABLE
  2
BLOCK_RECORD
  5
1
330
0
100
AcDbSymbolTable
 70
    12
  0
BLOCK_RECORD
  5
1F
330
1
100
AcDbSymbolTableRecord
100
AcDbBlockTableRecord
  2
*Model_Space
340
22
  0
BLOCK_RECORD
  5
1B
330
1
100
AcDbSymbolTableRecord
100
AcDbBlockTableRecord
  2
*Paper_Space
340
1E
  0
BLOCK_RECORD
  5
23
330
1
100
AcDbSymbolTableRecord
100
AcDbBlockTableRecord
  2
*Paper_Space0
340
26
  0
BLOCK_RECORD
  5
2D
330
1
100
AcDbSymbolTableRecord
100
AcDbBlockTableRecord
  2
_ORIGIN
340
0
  0
BLOCK_RECORD
  5
32
330
1
100
AcDbSymbolTableRecord
100
AcDbBlockTableRecord
  2
_DOTBLANK
340
0
  0
BLOCK_RECORD
  5
37
330
1
100
AcDbSymbolTableRecord
100
AcDbBlockTableRecord
  2
_DOT
340
0
  0
BLOCK_RECORD
  5
3C
330
1
100
AcDbSymbolTableRecord
100
AcDbBlockTableRecord
  2
_OPEN
340
0
  0
BLOCK_RECORD
  5
42
330
1
100
AcDbSymbolTableRecord
100
AcDbBlockTableRecord
  2
_CLOSED
340
0
  0
BLOCK_RECORD
  5
49
330
1
100
AcDbSymbolTableRecord
100
AcDbBlockTableRecord
  2
_CLOSEDBLANK
340
0
  0
BLOCK_RECORD
  5
4F
330
1
100
AcDbSymbolTableRecord
100
AcDbBlockTableRecord
  2
_BOXBLANK
340
0
  0
BLOCK_RECORD
  5
57
330
1
100
AcDbSymbolTableRecord
100
AcDbBlockTableRecord
  2
_BOXFILLED
340
0
  0
BLOCK_RECORD
  5
5C
330
1
100
AcDbSymbolTableRecord
100
AcDbBlockTableRecord
  2
_INTEGRAL
340
0
  0
BLOCK_RECORD
  5
61
330
1
100
AcDbSymbolTableRecord
100
AcDbBlockTableRecord
  2
_OBLIQUE
340
0
  0
BLOCK_RECORD
  5
65
330
1
100
AcDbSymbolTableRecord
100
AcDbBlockTableRecord
  2
_NONE
340
0
  0
ENDTAB
  0
ENDSEC
  0
SECTION
  2
BLOCKS
  0
BLOCK
  5
20
330
1F
100
AcDbEntity
  8
0
100
AcDbBlockBegin
  2
*Model_Space
 70
     0
 71
     0
 10
0.0
 20
0.0
 30
0.0
  3
*Model_Space
  1

  0
ENDBLK
  5
21
330
1F
100
AcDbEntity
  8
0
100
AcDbBlockEnd
  0
BLOCK
  5
1C
330
1B
100
AcDbEntity
 67
     1
  8
0
100
AcDbBlockBegin
  2
*Paper_Space
 70
     0
 71
     0
 10
0.0
 20
0.0
 30
0.0
  3
*Paper_Space
  1

  0
ENDBLK
  5
1D
330
1B
100
AcDbEntity
 67
     1
  8
0
100
AcDbBlockEnd
  0
BLOCK
  5
24
330
23
100
AcDbEntity
  8
0
100
AcDbBlockBegin
  2
*Paper_Space0
 70
     0
 71
     0
 10
0.0
 20
0.0
 30
0.0
  3
*Paper_Space0
  1

  0
ENDBLK
  5
25
330
23
100
AcDbEntity
  8
0
100
AcDbBlockEnd
  0
BLOCK
  5
30
330
2D
100
AcDbEntity
  8
0
100
AcDbBlockBegin
  2
_ORIGIN
 70
     0
 71
     0
 10
0.0
 20
0.0
 30
0.0
  3
_ORIGIN
  1

  0
CIRCLE
  5
2E
330
2D
100
AcDbEntity
  8
0
100
AcDbCircle
 10
0.0
 20
0.0
 30
0.0
 40
0.5
  0
LINE
  5
2F
330
2D
100
AcDbEntity
  8
0
100
AcDbLine
 10
0.0
 20
0.0
 30
0.0
 11
-1.0
 21
0.0
 31
0.0
  0
ENDBLK
  5
31
330
2D
100
AcDbEntity
  8
0
100
AcDbBlockEnd
  0
BLOCK
  5
35
330
32
100
AcDbEntity
  8
0
100
AcDbBlockBegin
  2
_DOTBLANK
 70
     0
 71
     0
 10
0.0
 20
0.0
 30
0.0
  3
_DOTBLANK
  1

  0
CIRCLE
  5
33
330
32
100
AcDbEntity
  8
0
100
AcDbCircle
 10
0.0
 20
0.0
 30
0.0
 40
0.5
  0
LINE
  5
34
330
32
100
AcDbEntity
  8
0
100
AcDbLine
 10
-0.5
 20
0.0
 30
0.0
 11
-1.0
 21
0.0
 31
0.0
  0
ENDBLK
  5
36
330
32
100
AcDbEntity
  8
0
100
AcDbBlockEnd
  0
BLOCK
  5
3A
330
37
100
AcDbEntity
  8
0
100
AcDbBlockBegin
  2
_DOT
 70
     0
 71
     0
 10
0.0
 20
0.0
 30
0.0
  3
_DOT
  1

  0
LWPOLYLINE
  5
38
330
37
100
AcDbEntity
  8
0
100
AcDbPolyline
 90
        2
 70
     1
 43
0.5
 10
-0.25
 20
0.0
 42
1.0
 10
0.25
 20
0.0
 42
1.0
  0
LINE
  5
39
330
37
100
AcDbEntity
  8
0
100
AcDbLine
 10
-0.5
 20
0.0
 30
0.0
 11
-1.0
 21
0.0
 31
0.0
  0
ENDBLK
  5
3B
330
37
100
AcDbEntity
  8
0
100
AcDbBlockEnd
  0
BLOCK
  5
40
330
3C
100
AcDbEntity
  8
0
100
AcDbBlockBegin
  2
_OPEN
 70
     0
 71
     0
 10
0.0
 20
0.0
 30
0.0
  3
_OPEN
  1

  0
LINE
  5
3D
330
3C
100
AcDbEntity
  8
0
100
AcDbLine
 10
-1.0
 20
0.1666666666666667
 30
0.0
 11
0.0
 21
0.0
 31
0.0
  0
LINE
  5
3E
330
3C
100
AcDbEntity
  8
0
100
AcDbLine
 10
-1.0
 20
-0.1666666666666667
 30
0.0
 11
0.0
 21
0.0
 31
0.0
  0
LINE
  5
3F
330
3C
100
AcDbEntity
  8
0
100
AcDbLine
 10
0.0
 20
0.0
 30
0.0
 11
-1.0
 21
0.0
 31
0.0
  0
ENDBLK
  5
41
330
3C
100
AcDbEntity
  8
0
100
AcDbBlockEnd
  0
BLOCK
  5
47
330
42
100
AcDbEntity
  8
0
100
AcDbBlockBegin
  2
_CLOSED
 70
     0
 71
     0
 10
0.0
 20
0.0
 30
0.0
  3
_CLOSED
  1

  0
LINE
  5
43
330
42
100
AcDbEntity
  8
0
100
AcDbLine
 10
-1.0
 20
0.1666666666666667
 30
0.0
 11
0.0
 21
0.0
 31
0.0
  0
LINE
  5
44
330
42
100
AcDbEntity
  8
0
100
AcDbLine
 10
0.0
 20
0.0
 30
0.0
 11
-1.0
 21
-0.1666666666666667
 31
0.0
  0
LINE
  5
45
330
42
100
AcDbEntity
  8
0
100
AcDbLine
 10
-1.0
 20
0.1666666666666667
 30
0.0
 11
-1.0
 21
-0.1666666666666667
 31
0.0
  0
LINE
  5
46
330
42
100
AcDbEntity
  8
0
100
AcDbLine
 10
0.0
 20
0.0
 30
0.0
 11
-1.0
 21
0.0
 31
0.0
  0
ENDBLK
  5
48
330
42
100
AcDbEntity
  8
0
100
AcDbBlockEnd
  0
BLOCK
  5
4D
330
49
100
AcDbEntity
  8
0
100
AcDbBlockBegin
  2
_CLOSEDBLANK
 70
     0
 71
     0
 10
0.0
 20
0.0
 30
0.0
  3
_CLOSEDBLANK
  1

  0
LINE
  5
4A
330
49
100
AcDbEntity
  8
0
100
AcDbLine
 10
-1.0
 20
0.1666666666666667
 30
0.0
 11
0.0
 21
0.0
 31
0.0
  0
LINE
  5
4B
330
49
100
AcDbEntity
  8
0
100
AcDbLine
 10
0.0
 20
0.0
 30
0.0
 11
-1.0
 21
-0.1666666666666667
 31
0.0
  0
LINE
  5
4C
330
49
100
AcDbEntity
  8
0
100
AcDbLine
 10
-1.0
 20
0.1666666666666667
 30
0.0
 11
-1.0
 21
-0.1666666666666667
 31
0.0
  0
ENDBLK
  5
4E
330
49
100
AcDbEntity
  8
0
100
AcDbBlockEnd
  0
BLOCK
  5
55
330
4F
100
AcDbEntity
  8
0
100
AcDbBlockBegin
  2
_BOXBLANK
 70
     0
 71
     0
 10
0.0
 20
0.0
 30
0.0
  3
_BOXBLANK
  1

  0
LINE
  5
50
330
4F
100
AcDbEntity
  8
0
100
AcDbLine
 10
-0.5
 20
-0.5
 30
0.0
 11
0.5
 21
-0.5
 31
0.0
  0
LINE
  5
51
330
4F
100
AcDbEntity
  8
0
100
AcDbLine
 10
0.5
 20
-0.5
 30
0.0
 11
0.5
 21
0.5
 31
0.0
  0
LINE
  5
52
330
4F
100
AcDbEntity
  8
0
100
AcDbLine
 10
0.5
 20
0.5
 30
0.0
 11
-0.5
 21
0.5
 31
0.0
  0
LINE
  5
53
330
4F
100
AcDbEntity
  8
0
100
AcDbLine
 10
-0.5
 20
0.5
 30
0.0
 11
-0.5
 21
-0.5
 31
0.0
  0
LINE
  5
54
330
4F
100
AcDbEntity
  8
0
100
AcDbLine
 10
-0.5
 20
0.0
 30
0.0
 11
-1.0
 21
0.0
 31
0.0
  0
ENDBLK
  5
56
330
4F
100
AcDbEntity
  8
0
100
AcDbBlockEnd
  0
BLOCK
  5
5A
330
57
100
AcDbEntity
  8
0
100
AcDbBlockBegin
  2
_BOXFILLED
 70
     0
 71
     0
 10
0.0
 20
0.0
 30
0.0
  3
_BOXFILLED
  1

  0
SOLID
  5
58
330
57
100
AcDbEntity
  8
0
100
AcDbTrace
 10
-0.5
 20
0.5
 30
0.0
 11
0.5
 21
0.5
 31
0.0
 12
-0.5
 22
-0.5
 32
0.0
 13
0.5
 23
-0.5
 33
0.0
  0
LINE
  5
59
330
57
100
AcDbEntity
  8
0
100
AcDbLine
 10
-0.5
 20
0.0
 30
0.0
 11
-1.0
 21
0.0
 31
0.0
  0
ENDBLK
  5
5B
330
57
100
AcDbEntity
  8
0
100
AcDbBlockEnd
  0
BLOCK
  5
5F
330
5C
100
AcDbEntity
  8
0
100
AcDbBlockBegin
  2
_INTEGRAL
 70
     0
 71
     0
 10
0.0
 20
0.0
 30
0.0
  3
_INTEGRAL
  1

  0
ARC
  5
5D
330
5C
100
AcDbEntity
  8
0
100
AcDbCircle
 10
0.444888
 20
-0.0913346
 30
0.0
 40
0.4541666
100
AcDbArc
 50
5844.169510334397
 51
9625.690958197831
  0
ARC
  5
5E
330
5C
100
AcDbEntity
  8
0
100
AcDbCircle
 10
-0.444888
 20
0.0913346
 30
0.0
 40
0.4541666
100
AcDbArc
 50
16157.40982268922
 51
19938.93127055265
  0
ENDBLK
  5
60
330
5C
100
AcDbEntity
  8
0
100
AcDbBlockEnd
  0
BLOCK
  5
63
330
61
100
AcDbEntity
  8
0
100
AcDbBlockBegin
  2
_OBLIQUE
 70
     0
 71
     0
 10
0.0
 20
0.0
 30
0.0
  3
_OBLIQUE
  1

  0
LINE
  5
62
330
61
100
AcDbEntity
  8
0
100
AcDbLine
 10
-0.5
 20
-0.5
 30
0.0
 11
0.5
 21
0.5
 31
0.0
  0
ENDBLK
  5
64
330
61
100
AcDbEntity
  8
0
100
AcDbBlockEnd
  0
BLOCK
  5
66
330
65
100
AcDbEntity
  8
0
100
AcDbBlockBegin
  2
_NONE
 70
     0
 71
     0
 10
0.0
 20
0.0
 30
0.0
  3
_NONE
  1

  0
ENDBLK
  5
67
330
65
100
AcDbEntity
  8
0
100
AcDbBlockEnd
  0
ENDSEC
  0
SECTION
  2
ENTITIES
  0
LINE
  5
7D
330
1F
100
AcDbEntity
  8
WAKU
  6
Continuous
 62
   255
370
    50
100
AcDbLine
 10
0.0226461629827099
 20
0.016012438472444
 30
0.0
 11
1386.022646162983
 21
0.016012438472444
 31
0.0
  0
LINE
  5
7E
330
1F
100
AcDbEntity
  8
WAKU
  6
Continuous
 62
   255
370
    50
100
AcDbLine
 10
1036.022646162983
 20
30.01601243847244
 30
0.0
 11
1386.022646162983
 21
30.01601243847244
 31
0.0
  0
LINE
  5
7F
330
1F
100
AcDbEntity
  8
WAKU
  6
Continuous
 62
   255
370
    50
100
AcDbLine
 10
1386.022646162983
 20
0.016012438472444
 30
0.0
 11
1386.022646162983
 21
951.0160124384724
 31
0.0
  0
LINE
  5
80
330
1F
100
AcDbEntity
  8
WAKU
  6
Continuous
 62
   255
370
    50
100
AcDbLine
 10
1036.022646162983
 20
60.01601243847244
 30
0.0
 11
1036.022646162983
 21
335.0160124384724
 31
0.0
  0
LINE
  5
81
330
1F
100
AcDbEntity
  8
WAKU
  6
Continuous
 62
   255
370
    50
100
AcDbLine
 10
1386.022646162983
 20
951.0160124384724
 30
0.0
 11
0.0226461629827099
 21
951.0160124384724
 31
0.0
  0
LINE
  5
82
330
1F
100
AcDbEntity
  8
WAKU
  6
Continuous
 62
   255
370
    50
100
AcDbLine
 10
0.0226461629827099
 20
951.0160124384724
 30
0.0
 11
0.0226461629827099
 21
0.016012438472444
 31
0.0
  0
LINE
  5
83
330
1F
100
AcDbEntity
  8
WAKU
  6
Continuous
 62
   255
370
    50
100
AcDbLine
 10
1036.022646162983
 20
0.016012438472444
 30
0.0
 11
1036.022646162983
 21
60.01601243847244
 31
0.0
  0
LINE
  5
84
330
1F
100
AcDbEntity
  8
WAKU
  6
Continuous
 62
   255
370
    50
100
AcDbLine
 10
1141.022646162983
 20
0.016012438472444
 30
0.0
 11
1141.022646162983
 21
60.01601243847244
 31
0.0
  0
TEXT
  5
85
330
1F
100
AcDbEntity
  8
WAKU
  6
Continuous
 62
   255
370
    25
100
AcDbText
 10
1056.022646162983
 20
7.516012438472444
 30
0.0
 40
15.0
  1
NAME
 41
0.5
100
AcDbText
  0
LINE
  5
86
330
1F
100
AcDbEntity
  8
WAKU
  6
Continuous
 62
   255
370
    50
100
AcDbLine
 10
1061.022646162983
 20
197.5160124384724
 30
0.0
 11
1148.522646162983
 21
197.5160124384724
 31
0.0
  0
TEXT
  5
87
330
1F
100
AcDbEntity
  8
MOJI
  6
Continuous
 62
   255
370
    25
100
AcDbText
 10
1161.022646162983
 20
165.0160124384724
 30
0.0
 40
14.0
  1
moji
 41
0.5
100
AcDbText
  0
LINE
  5
88
330
1F
100
AcDbEntity
  8
WAKU
  6
Continuous
 62
   255
370
    50
100
AcDbLine
 10
1036.022646162983
 20
335.0160124384724
 30
0.0
 11
1386.022646162983
 21
335.0160124384724
 31
0.0
  0
TEXT
  5
89
330
1F
100
AcDbEntity
  8
WAKU
  6
Continuous
 62
   255
370
    25
100
AcDbText
 10
1161.022646162983
 20
190.0160124384724
 30
0.0
 40
14.0
  1
waku
 41
0.5
100
AcDbText
  0
LINE
  5
8A
330
1F
100
AcDbEntity
  8
WAKU
  6
Continuous
 62
   255
370
    50
100
AcDbLine
 10
1086.022646162983
 20
112.0632112354224
 30
0.0
 11
1336.022646162983
 21
112.0632112354224
 31
0.0
  0
LINE
  5
8B
330
1F
100
AcDbEntity
  8
WAKU
  6
Continuous
 62
   255
370
    50
100
AcDbLine
 10
1086.022646162983
 20
97.06321123541844
 30
0.0
 11
1336.022646162983
 21
97.06321123541844
 31
0.0
  0
LINE
  5
8C
330
1F
100
AcDbEntity
  8
WAKU
  6
Continuous
 62
   255
370
    50
100
AcDbLine
 10
1086.022646162983
 20
112.0632112354224
 30
0.0
 11
1086.022646162983
 21
97.06321123541844
 31
0.0
  0
LINE
  5
8D
330
1F
100
AcDbEntity
  8
WAKU
  6
Continuous
 62
   255
370
    50
100
AcDbLine
 10
1136.022646162983
 20
112.0632112354224
 30
0.0
 11
1136.022646162983
 21
97.06321123541844
 31
0.0
  0
LINE
  5
8E
330
1F
100
AcDbEntity
  8
WAKU
  6
Continuous
 62
   255
370
    50
100
AcDbLine
 10
1186.022646162983
 20
112.0632112354224
 30
0.0
 11
1186.022646162983
 21
97.06321123541844
 31
0.0
  0
LINE
  5
8F
330
1F
100
AcDbEntity
  8
WAKU
  6
Continuous
 62
   255
370
    50
100
AcDbLine
 10
1236.022646162983
 20
112.0632112354224
 30
0.0
 11
1236.022646162983
 21
97.06321123541844
 31
0.0
  0
LINE
  5
90
330
1F
100
AcDbEntity
  8
WAKU
  6
Continuous
 62
   255
370
    50
100
AcDbLine
 10
1286.022646162983
 20
112.0632112354224
 30
0.0
 11
1286.022646162983
 21
97.06321123541844
 31
0.0
  0
LINE
  5
91
330
1F
100
AcDbEntity
  8
WAKU
  6
Continuous
 62
   255
370
    50
100
AcDbLine
 10
1336.022646162983
 20
112.0632112354224
 30
0.0
 11
1336.022646162983
 21
97.06321123541844
 31
0.0
  0
TEXT
  5
92
330
1F
100
AcDbEntity
  8
WAKU
  6
Continuous
 62
   255
370
    25
100
AcDbText
 10
1082.741806267983
 20
118.3361771184725
 30
0.0
 40
10.0
  1
0
 41
0.5
100
AcDbText
  0
TEXT
  5
93
330
1F
100
AcDbEntity
  8
WAKU
  6
Continuous
 62
   255
370
    25
100
AcDbText
 10
1316.022646162983
 20
118.3361771184725
 30
0.0
 40
10.0
  1
250mm
 41
0.5
100
AcDbText
  0
LINE
  5
94
330
1F
100
AcDbEntity
  8
WAKU
  6
Continuous
 62
   255
370
    50
100
AcDbLine
 10
1036.022646162983
 20
60.01601243847244
 30
0.0
 11
1386.022646162983
 21
60.01601243847244
 31
0.0
  0
TEXT
  5
95
330
1F
100
AcDbEntity
  8
WAKU
  6
Continuous
 62
   255
370
    25
100
AcDbText
 10
10.02264616298271
 20
921.0160124384724
 30
0.0
 40
20.0
  1
問１
100
AcDbText
  0
TEXT
  5
96
330
1F
100
AcDbEntity
  8
MOJI
  6
Continuous
 62
   255
370
    25
100
AcDbText
 10
1066.022646162983
 20
165.0160124384724
 30
0.0
 40
14.0
  1
ABCDEF
 41
0.5
100
AcDbText
  0
TEXT
  5
97
330
1F
100
AcDbEntity
  8
WAKU
  6
Continuous
 62
   255
370
    25
100
AcDbText
 10
1056.022646162983
 20
37.51601243847244
 30
0.0
 40
15.0
  1
TYPE
 41
0.5
100
AcDbText
  0
TEXT
  5
98
330
1F
100
AcDbEntity
  8
MOJI
  6
Continuous
 62
   255
370
    25
100
AcDbText
 10
1261.022646162983
 20
37.51601243847244
 30
0.0
 40
15.0
  1
1
 41
0.5
100
AcDbText
  0
TEXT
  5
99
330
1F
100
AcDbEntity
  8
WAKU
  6
Continuous
 62
   255
370
    25
100
AcDbText
 10
861.0226461629827
 20
963.5160124384724
 30
0.0
 40
20.0
  1
平成１９年度１級（前期） トレース ＴＹＰＥ１
100
AcDbText
  0
LINE
  5
9A
330
1F
100
AcDbEntity
  8
HAGURUMA
  6
Continuous
 62
   255
370
    50
100
AcDbLine
 10
272.9497041272027
 20
264.2193229857625
 30
0.0
 11
272.9497041272027
 21
864.2193229857627
 31
0.0
  0
LINE
  5
9B
330
1F
100
AcDbEntity
  8
HAGURUMA
  6
Continuous
 62
   255
370
    50
100
AcDbLine
 10
172.9497041271927
 20
429.2193337169023
 30
0.0
 11
372.9497041284227
 21
429.2193337169023
 31
0.0
  0
LINE
  5
9C
330
1F
100
AcDbEntity
  8
HAGURUMA
  6
Continuous
 62
   255
370
    50
100
AcDbLine
 10
172.9497041272027
 20
326.7193229857625
 30
0.0
 11
372.9497041287627
 21
326.7193229857625
 31
0.0
  0
LINE
  5
9D
330
1F
100
AcDbEntity
  8
HAGURUMA
  6
Continuous
 62
   255
370
    50
100
AcDbLine
 10
172.9497041271727
 20
801.7193229857627
 30
0.0
 11
372.9497041271627
 21
801.7193229857627
 31
0.0
  0
LINE
  5
9E
330
1F
100
AcDbEntity
  8
HAGURUMA
  6
Continuous
 62
   255
370
    50
100
AcDbLine
 10
172.9497041271727
 20
699.2193122546323
 30
0.0
 11
372.9497041275127
 21
699.2193122546323
 31
0.0
  0
ARC
  5
9F
330
1F
100
AcDbEntity
  8
HAGURUMA
  6
Continuous
 62
   255
370
    50
100
AcDbCircle
 10
764.1769617888728
 20
564.2193229857625
 30
0.0
 40
237.5
100
AcDbArc
 50
269.9999999999998
 51
89.99999999999992
  0
ARC
  5
A0
330
1F
100
AcDbEntity
  8
HAGURUMA
  6
Continuous
 62
   255
370
    50
100
AcDbCircle
 10
764.1769617888728
 20
564.2193229857625
 30
0.0
 40
135.0
100
AcDbArc
 50
269.9999999999998
 51
89.99999999999992
  0
LINE
  5
A1
330
1F
100
AcDbEntity
  8
HAGURUMA
  6
Continuous
 62
   255
370
    50
100
AcDbLine
 10
764.1769617888728
 20
264.2193229857625
 30
0.0
 11
764.1769617888728
 21
864.2193229857627
 31
0.0
  0
LINE
  5
A2
330
1F
100
AcDbEntity
  8
HAGURUMA
  6
Continuous
 62
   255
370
    50
100
AcDbLine
 10
779.1769617888728
 20
274.2193229857625
 30
0.0
 11
749.1769617888728
 21
274.2193229857625
 31
0.0
  0
LINE
  5
A3
330
1F
100
AcDbEntity
  8
HAGURUMA
  6
Continuous
 62
   255
370
    50
100
AcDbLine
 10
779.1769617888728
 20
284.2193229857625
 30
0.0
 11
749.1769617888728
 21
284.2193229857625
 31
0.0
  0
LINE
  5
A4
330
1F
100
AcDbEntity
  8
HAGURUMA
  6
Continuous
 62
   255
370
    50
100
AcDbLine
 10
764.1769617888728
 20
564.2193229857624
 30
0.0
 11
1064.176961788883
 21
564.2193229857625
 31
0.0
  0
LINE
  5
A5
330
1F
100
AcDbEntity
  8
HAGURUMA
  6
Continuous
 62
   255
370
    50
100
AcDbLine
 10
779.1769617889025
 20
853.7519168302823
 30
0.0
 11
749.1769617889025
 21
853.7519168302823
 31
0.0
  0
LINE
  5
A6
330
1F
100
AcDbEntity
  8
HAGURUMA
  6
Continuous
 62
   255
370
    50
100
AcDbLine
 10
779.1769617889025
 20
843.7519168302824
 30
0.0
 11
749.1769617889025
 21
843.7519168302824
 31
0.0
  0
LINE
  5
A7
330
1F
100
AcDbEntity
  8
HAGURUMA
  6
Continuous
 62
   255
370
    50
100
AcDbLine
 10
1061.022646162983
 20
226.1108948798625
 30
0.0
 11
1148.522646162983
 21
226.1108948798625
 31
0.0
  0
TEXT
  5
A8
330
1F
100
AcDbEntity
  8
HAGURUMA
  6
Continuous
 62
   255
370
    25
100
AcDbText
 10
1161.022646162983
 20
218.6108948798625
 30
0.0
 40
14.0
  1
haguruma
 41
0.5
100
AcDbText
  0
LINE
  5
A9
330
1F
100
AcDbEntity
  8
HAGURUMA
  6
Continuous
 62
   255
370
    50
100
AcDbLine
 10
172.9497041271826
 20
564.2193229857625
 30
0.0
 11
412.9497041271926
 21
564.2193229857625
 31
0.0
  0
TEXT
  5
AA
330
1F
100
AcDbEntity
  8
MOJI
  6
Continuous
 62
   255
370
    25
100
AcDbText
 10
368.6501517337927
 20
144.0504305639124
 30
0.0
 40
20.0
  1
平歯車　断面図・右側面図　
100
AcDbText
  0
LINE
  5
AB
330
1F
100
AcDbEntity
  8
HAGURUMA
  6
Continuous
 62
   255
370
    50
100
AcDbLine
 10
804.1769617888726
 20
633.5013552885223
 30
0.0
 11
859.1769617888728
 21
728.7641497048124
 31
0.0
  0
LINE
  5
AC
330
1F
100
AcDbEntity
  8
HAGURUMA
  6
Continuous
 62
   255
370
    50
100
AcDbLine
 10
804.1769617888726
 20
494.9372906830024
 30
0.0
 11
859.1769617888728
 21
399.6744962667124
 31
0.0
  0
ARC
  5
AD
330
1F
100
AcDbEntity
  8
HAGURUMA
  6
Continuous
 62
   255
370
    50
100
AcDbCircle
 10
764.1769617888728
 20
564.2193229857625
 30
0.0
 40
250.0
100
AcDbArc
 50
269.9999999999998
 51
89.99999999999992
  0
ARC
  5
AE
330
1F
100
AcDbEntity
  8
HAGURUMA
  6
Continuous
 62
   255
370
    50
100
AcDbCircle
 10
764.1769617888728
 20
564.2193229857625
 30
0.0
 40
200.0
100
AcDbArc
 50
269.9999999999998
 51
89.99999999999992
  0
LINE
  5
AF
330
1F
100
AcDbEntity
  8
HAGURUMA
  6
Continuous
 62
   255
370
    50
100
AcDbLine
 10
222.9497041272027
 20
314.2193229857625
 30
0.0
 11
222.9497041272027
 21
814.2193229857625
 31
0.0
  0
LINE
  5
B0
330
1F
100
AcDbEntity
  8
HAGURUMA
  6
Continuous
 62
   255
370
    50
100
AcDbLine
 10
322.9497041272027
 20
634.2193229857624
 30
0.0
 11
322.9497041272027
 21
789.2193229857625
 31
0.0
  0
LINE
  5
B1
330
1F
100
AcDbEntity
  8
HAGURUMA
  6
Continuous
 62
   255
370
    50
100
AcDbLine
 10
222.9497041272027
 20
814.2193229857625
 30
0.0
 11
297.9497041272027
 21
814.2193229857625
 31
0.0
  0
LINE
  5
B2
330
1F
100
AcDbEntity
  8
HAGURUMA
  6
Continuous
 62
   255
370
    50
100
AcDbLine
 10
297.9497041272027
 20
814.2193229857625
 30
0.0
 11
322.9497041272027
 21
789.2193229857625
 31
0.0
  0
LINE
  5
B3
330
1F
100
AcDbEntity
  8
HAGURUMA
  6
Continuous
 62
   255
370
    50
100
AcDbLine
 10
322.9497041272027
 20
764.2193229857625
 30
0.0
 11
302.9497041272028
 21
764.2193229857627
 31
0.0
  0
LINE
  5
B4
330
1F
100
AcDbEntity
  8
HAGURUMA
  6
Continuous
 62
   255
370
    50
100
AcDbLine
 10
362.9497041272027
 20
504.2193229857626
 30
0.0
 11
362.9497041272027
 21
624.2193229857624
 31
0.0
  0
ARC
  5
B5
330
1F
100
AcDbEntity
  8
HAGURUMA
  6
Continuous
 62
   255
370
    50
100
AcDbCircle
 10
764.1769617888728
 20
564.2193229857625
 30
0.0
 40
225.0
100
AcDbArc
 50
269.9999999999998
 51
89.99999999999992
  0
ARC
  5
B6
330
1F
100
AcDbEntity
  8
HAGURUMA
  6
Continuous
 62
   255
370
    50
100
AcDbCircle
 10
764.1769617888729
 20
564.2193229857624
 30
0.0
 40
70.0
100
AcDbArc
 50
269.9999999999996
 51
90.0000000000001
  0
ARC
  5
B7
330
1F
100
AcDbEntity
  8
HAGURUMA
  6
Continuous
 62
   255
370
    50
100
AcDbCircle
 10
764.1769617888728
 20
564.2193229857631
 30
0.0
 40
30.0
100
AcDbArc
 50
269.9999999999998
 51
89.99999999999992
  0
LINE
  5
B8
330
1F
100
AcDbEntity
  8
HAGURUMA
  6
Continuous
 62
   255
370
    50
100
AcDbLine
 10
242.9497041272027
 20
634.2193229857624
 30
0.0
 11
222.9497041272027
 21
634.2193229857624
 31
0.0
  0
LINE
  5
B9
330
1F
100
AcDbEntity
  8
HAGURUMA
  6
Continuous
 62
   255
370
    50
100
AcDbLine
 10
357.9497041272028
 20
594.2193229857633
 30
0.0
 11
227.9497041272028
 21
594.219322985763
 31
0.0
  0
LINE
  5
BA
330
1F
100
AcDbEntity
  8
HAGURUMA
  6
Continuous
 62
   255
370
    50
100
AcDbLine
 10
292.9497041272027
 20
644.2193229857622
 30
0.0
 11
292.9497041272027
 21
754.2193229857627
 31
0.0
  0
LINE
  5
BB
330
1F
100
AcDbEntity
  8
HAGURUMA
  6
Continuous
 62
   255
370
    50
100
AcDbLine
 10
252.9497041272027
 20
644.2193229857622
 30
0.0
 11
252.9497041272027
 21
754.2193229857627
 31
0.0
  0
LINE
  5
BC
330
1F
100
AcDbEntity
  8
HAGURUMA
  6
Continuous
 62
   255
370
    50
100
AcDbLine
 10
242.9497041272027
 20
764.2193229857627
 30
0.0
 11
222.9497041272027
 21
764.2193229857625
 31
0.0
  0
ARC
  5
BD
330
1F
100
AcDbEntity
  8
HAGURUMA
  6
Continuous
 62
   255
370
    50
100
AcDbCircle
 10
302.9497041272027
 20
754.2193229857627
 30
0.0
 40
10.0
100
AcDbArc
 50
89.99999999999969
 51
179.9999999999998
  0
ARC
  5
BE
330
1F
100
AcDbEntity
  8
HAGURUMA
  6
Continuous
 62
   255
370
    50
100
AcDbCircle
 10
242.9497041272027
 20
754.2193229857627
 30
0.0
 40
10.0
100
AcDbArc
 50
0.0
 51
90.00000000000017
  0
LINE
  5
BF
330
1F
100
AcDbEntity
  8
HAGURUMA
  6
Continuous
 62
   255
370
    50
100
AcDbLine
 10
302.9497041272027
 20
634.2193229857624
 30
0.0
 11
352.9497041272027
 21
634.2193229857624
 31
0.0
  0
ARC
  5
C0
330
1F
100
AcDbEntity
  8
HAGURUMA
  6
Continuous
 62
   255
370
    50
100
AcDbCircle
 10
302.9497041272026
 20
644.2193229857621
 30
0.0
 40
10.0
100
AcDbArc
 50
179.9999999999987
 51
270.0000000000006
  0
ARC
  5
C1
330
1F
100
AcDbEntity
  8
HAGURUMA
  6
Continuous
 62
   255
370
    50
100
AcDbCircle
 10
242.9497041272029
 20
644.219322985762
 30
0.0
 40
10.0
100
AcDbArc
 50
269.9999999999988
 51
0.0000000000019541
  0
ARC
  5
C2
330
1F
100
AcDbEntity
  8
HAGURUMA
  6
Continuous
 62
   255
370
    50
100
AcDbCircle
 10
352.9497041272027
 20
624.2193229857624
 30
0.0
 40
10.0
100
AcDbArc
 50
0.0
 51
89.99999999999992
  0
LINE
  5
C3
330
1F
100
AcDbEntity
  8
HAGURUMA
  6
Continuous
 62
   255
370
    50
100
AcDbLine
 10
357.9497041272027
 20
534.2193229857618
 30
0.0
 11
357.9497041272027
 21
594.219322985763
 31
0.0
  0
LINE
  5
C4
330
1F
100
AcDbEntity
  8
HAGURUMA
  6
Continuous
 62
   255
370
    50
100
AcDbLine
 10
227.9497041272027
 20
564.2193229857625
 30
0.0
 11
227.9497041272027
 21
594.2193229857631
 31
0.0
  0
LINE
  5
C5
330
1F
100
AcDbEntity
  8
HAGURUMA
  6
Continuous
 62
   255
370
    50
100
AcDbLine
 10
362.9497041272027
 20
599.2193229857631
 30
0.0
 11
357.9497041272027
 21
594.2193229857631
 31
0.0
  0
LINE
  5
C6
330
1F
100
AcDbEntity
  8
HAGURUMA
  6
Continuous
 62
   255
370
    50
100
AcDbLine
 10
222.9497041272027
 20
599.2193229857631
 30
0.0
 11
227.9497041272027
 21
594.2193229857631
 31
0.0
  0
ARC
  5
C7
330
1F
100
AcDbEntity
  8
HAGURUMA
  6
Continuous
 62
   255
370
    50
100
AcDbCircle
 10
764.1769617888728
 20
564.2193229857631
 30
0.0
 40
35.0
100
AcDbArc
 50
269.9999999999998
 51
89.99999999999992
  0
CIRCLE
  5
C8
330
1F
100
AcDbEntity
  8
HAGURUMA
  6
Continuous
 62
   255
370
    50
100
AcDbCircle
 10
899.1769617888728
 20
564.2193229857625
 30
0.0
 40
45.0
  0
CIRCLE
  5
C9
330
1F
100
AcDbEntity
  8
HAGURUMA
  6
Continuous
 62
   255
370
    50
100
AcDbCircle
 10
831.6769617888728
 20
681.1327524966605
 30
0.0
 40
45.0
  0
CIRCLE
  5
CA
330
1F
100
AcDbEntity
  8
HAGURUMA
  6
Continuous
 62
   255
370
    50
100
AcDbCircle
 10
831.6769617888737
 20
447.3058934748638
 30
0.0
 40
45.0
  0
ARC
  5
CB
330
1F
100
AcDbEntity
  8
HAGURUMA
  6
Continuous
 62
   255
370
    50
100
AcDbCircle
 10
764.1769617888728
 20
564.2193229857625
 30
0.0
 40
200.0
100
AcDbArc
 50
269.9999999999998
 51
90.00000000000004
  0
LINE
  5
CC
330
1F
100
AcDbEntity
  8
HAGURUMA
  6
Continuous
 62
   255
370
    50
100
AcDbLine
 10
357.9497041272028
 20
534.2193229857617
 30
0.0
 11
227.9497041272028
 21
534.2193229857619
 31
0.0
  0
LINE
  5
CD
330
1F
100
AcDbEntity
  8
HAGURUMA
  6
Continuous
 62
   255
370
    50
100
AcDbLine
 10
222.9497041272027
 20
314.2193229857625
 30
0.0
 11
297.9497041272027
 21
314.2193229857625
 31
0.0
  0
LINE
  5
CE
330
1F
100
AcDbEntity
  8
HAGURUMA
  6
Continuous
 62
   255
370
    50
100
AcDbLine
 10
252.9497041272027
 20
484.2193229857627
 30
0.0
 11
252.9497041272027
 21
374.2193229857622
 31
0.0
  0
LINE
  5
CF
330
1F
100
AcDbEntity
  8
HAGURUMA
  6
Continuous
 62
   255
370
    50
100
AcDbLine
 10
227.9497041272027
 20
564.2193229857625
 30
0.0
 11
227.9497041272027
 21
534.2193229857618
 31
0.0
  0
LINE
  5
D0
330
1F
100
AcDbEntity
  8
HAGURUMA
  6
Continuous
 62
   255
370
    50
100
AcDbLine
 10
222.9497041272027
 20
529.2193229857618
 30
0.0
 11
227.9497041272027
 21
534.2193229857618
 31
0.0
  0
ARC
  5
D1
330
1F
100
AcDbEntity
  8
HAGURUMA
  6
Continuous
 62
   255
370
    50
100
AcDbCircle
 10
242.9497041272029
 20
484.2193229857629
 30
0.0
 40
10.0
100
AcDbArc
 50
359.9999999999977
 51
90.00000000000081
  0
LINE
  5
D2
330
1F
100
AcDbEntity
  8
HAGURUMA
  6
Continuous
 62
   255
370
    50
100
AcDbLine
 10
242.9497041272027
 20
494.2193229857626
 30
0.0
 11
222.9497041272027
 21
494.2193229857626
 31
0.0
  0
ARC
  5
D3
330
1F
100
AcDbEntity
  8
HAGURUMA
  6
Continuous
 62
   255
370
    50
100
AcDbCircle
 10
242.9497041272027
 20
374.2193229857622
 30
0.0
 40
10.0
100
AcDbArc
 50
269.9999999999995
 51
0.0
  0
LINE
  5
D4
330
1F
100
AcDbEntity
  8
HAGURUMA
  6
Continuous
 62
   255
370
    50
100
AcDbLine
 10
242.9497041272027
 20
364.2193229857622
 30
0.0
 11
222.9497041272027
 21
364.2193229857625
 31
0.0
  0
LINE
  5
D5
330
1F
100
AcDbEntity
  8
HAGURUMA
  6
Continuous
 62
   255
370
    50
100
AcDbLine
 10
322.9497041272027
 20
494.2193229857626
 30
0.0
 11
322.9497041272027
 21
339.2193229857625
 31
0.0
  0
LINE
  5
D6
330
1F
100
AcDbEntity
  8
HAGURUMA
  6
Continuous
 62
   255
370
    50
100
AcDbLine
 10
292.9497041272027
 20
484.2193229857627
 30
0.0
 11
292.9497041272027
 21
374.2193229857622
 31
0.0
  0
LINE
  5
D7
330
1F
100
AcDbEntity
  8
HAGURUMA
  6
Continuous
 62
   255
370
    50
100
AcDbLine
 10
362.9497041272027
 20
529.2193229857618
 30
0.0
 11
357.9497041272027
 21
534.2193229857618
 31
0.0
  0
LINE
  5
D8
330
1F
100
AcDbEntity
  8
HAGURUMA
  6
Continuous
 62
   255
370
    50
100
AcDbLine
 10
302.9497041272027
 20
494.2193229857626
 30
0.0
 11
352.9497041272027
 21
494.2193229857626
 31
0.0
  0
ARC
  5
D9
330
1F
100
AcDbEntity
  8
HAGURUMA
  6
Continuous
 62
   255
370
    50
100
AcDbCircle
 10
302.9497041272026
 20
484.2193229857628
 30
0.0
 40
10.0
100
AcDbArc
 50
89.99999999999902
 51
180.0000000000009
  0
ARC
  5
DA
330
1F
100
AcDbEntity
  8
HAGURUMA
  6
Continuous
 62
   255
370
    50
100
AcDbCircle
 10
352.9497041272027
 20
504.2193229857626
 30
0.0
 40
10.0
100
AcDbArc
 50
269.9999999999998
 51
0.0
  0
LINE
  5
DB
330
1F
100
AcDbEntity
  8
HAGURUMA
  6
Continuous
 62
   255
370
    50
100
AcDbLine
 10
322.9497041272027
 20
364.2193229857625
 30
0.0
 11
302.9497041272028
 21
364.2193229857622
 31
0.0
  0
ARC
  5
DC
330
1F
100
AcDbEntity
  8
HAGURUMA
  6
Continuous
 62
   255
370
    50
100
AcDbCircle
 10
302.9497041272027
 20
374.2193229857622
 30
0.0
 40
10.0
100
AcDbArc
 50
179.9999999999998
 51
269.9999999999999
  0
LINE
  5
DD
330
1F
100
AcDbEntity
  8
HAGURUMA
  6
Continuous
 62
   255
370
    50
100
AcDbLine
 10
297.9497041272027
 20
314.2193229857625
 30
0.0
 11
322.9497041272027
 21
339.2193229857625
 31
0.0
  0
LINE
  5
DE
330
1F
100
AcDbEntity
  8
HAGURUMA
  6
Continuous
 62
   255
370
    50
100
AcDbLine
 10
252.9497041272027
 20
744.2193122546327
 30
0.0
 11
292.9497041272027
 21
744.2193122546324
 31
0.0
  0
LINE
  5
DF
330
1F
100
AcDbEntity
  8
HAGURUMA
  6
Continuous
 62
   255
370
    50
100
AcDbLine
 10
252.9497041272027
 20
654.2193122546325
 30
0.0
 11
292.9497041272027
 21
654.2193122546325
 31
0.0
  0
LINE
  5
E0
330
1F
100
AcDbEntity
  8
HAGURUMA
  6
Continuous
 62
   255
370
    50
100
AcDbLine
 10
252.9497041272027
 20
384.2193337168923
 30
0.0
 11
292.9497041272027
 21
384.2193337168925
 31
0.0
  0
LINE
  5
E1
330
1F
100
AcDbEntity
  8
HAGURUMA
  6
Continuous
 62
   255
370
    50
100
AcDbLine
 10
252.9497041272027
 20
474.2193337168924
 30
0.0
 11
292.9497041272027
 21
474.2193337168924
 31
0.0
  0
VIEWPORT
  5
2A
330
1B
100
AcDbEntity
 67
     1
  8
0
100
AcDbViewport
 10
742.5
 20
525.0
 30
0.0
 40
1485.0
 41
1050.0
 68
     1
 69
     1
 12
742.5
 22
525.0
 13
0.0
 23
0.0
 14
0.5
 24
0.5
 15
0.5
 25
0.5
 16
0.0
 26
0.0
 36
1.0
 17
0.0
 27
0.0
 37
0.0
 42
50.0
 43
0.0
 44
0.0
 45
9.0
 50
0.0
 51
0.0
 72
   100
 90
    32800
  1

281
     0
 71
     1
 74
     0
110
0.0
120
0.0
130
0.0
111
1.0
121
0.0
131
0.0
112
0.0
122
1.0
132
0.0
 79
     0
146
0.0
  0
ENDSEC
  0
SECTION
  2
OBJECTS
  0
DICTIONARY
  5
C
330
0
100
AcDbDictionary
281
     1
  3
ACAD_GROUP
350
D
  3
ACAD_LAYOUT
350
1A
  3
ACAD_MLINESTYLE
350
17
  3
ACAD_PLOTSETTINGS
350
19
  3
ACAD_PLOTSTYLENAME
350
E
  3
AcDbVariableDictionary
350
E2
  0
DICTIONARY
  5
D
102
{ACAD_REACTORS
330
C
102
}
330
C
100
AcDbDictionary
281
     1
  0
DICTIONARY
  5
1A
102
{ACAD_REACTORS
330
C
102
}
330
C
100
AcDbDictionary
281
     1
  3
Layout1
350
1E
  3
Layout2
350
26
  3
Model
350
22
  0
DICTIONARY
  5
17
102
{ACAD_REACTORS
330
C
102
}
330
C
100
AcDbDictionary
281
     1
  3
Standard
350
18
  0
DICTIONARY
  5
19
102
{ACAD_REACTORS
330
C
102
}
330
C
100
AcDbDictionary
281
     1
  0
ACDBDICTIONARYWDFLT
  5
E
102
{ACAD_REACTORS
330
C
102
}
330
C
100
AcDbDictionary
281
     1
  3
Normal
350
F
100
AcDbDictionaryWithDefault
340
F
  0
DICTIONARY
  5
E2
102
{ACAD_REACTORS
330
C
102
}
330
C
100
AcDbDictionary
281
     1
  3
DIMASSOC
350
E3
  0
LAYOUT
  5
1E
102
{ACAD_REACTORS
330
1A
102
}
330
1A
100
AcDbPlotSettings
  1

  2

  4

  6

 40
0.0
 41
0.0
 42
0.0
 43
0.0
 44
0.0
 45
0.0
 46
0.0
 47
0.0
 48
0.0
 49
0.0
140
0.0
141
0.0
142
1.0
143
1.0
 70
   688
 72
     0
 73
     0
 74
     5
  7

 75
    16
147
1.0
148
0.0
149
0.0
100
AcDbLayout
  1
Layout1
 70
     1
 71
     1
 10
0.0
 20
0.0
 11
297.0
 21
210.0
 12
0.0
 22
0.0
 32
0.0
 14
0.0
 24
0.0
 34
0.0
 15
297.0
 25
210.0
 35
0.0
146
0.0
 13
0.0
 23
0.0
 33
0.0
 16
1.0
 26
0.0
 36
0.0
 17
0.0
 27
1.0
 37
0.0
 76
     0
330
1B
331
2A
  0
LAYOUT
  5
26
102
{ACAD_REACTORS
330
1A
102
}
330
1A
100
AcDbPlotSettings
  1

  2

  4

  6

 40
0.0
 41
0.0
 42
0.0
 43
0.0
 44
0.0
 45
0.0
 46
0.0
 47
0.0
 48
0.0
 49
0.0
140
0.0
141
0.0
142
1.0
143
1.0
 70
   688
 72
     0
 73
     0
 74
     5
  7

 75
    16
147
1.0
148
0.0
149
0.0
100
AcDbLayout
  1
Layout2
 70
     1
 71
     2
 10
0.0
 20
0.0
 11
0.0
 21
0.0
 12
0.0
 22
0.0
 32
0.0
 14
0.0
 24
0.0
 34
0.0
 15
0.0
 25
0.0
 35
0.0
146
0.0
 13
0.0
 23
0.0
 33
0.0
 16
1.0
 26
0.0
 36
0.0
 17
0.0
 27
1.0
 37
0.0
 76
     0
330
23
  0
LAYOUT
  5
22
102
{ACAD_REACTORS
330
1A
102
}
330
1A
100
AcDbPlotSettings
  1

  2

  4

  6

 40
0.0
 41
0.0
 42
0.0
 43
0.0
 44
0.0
 45
0.0
 46
0.0
 47
0.0
 48
0.0
 49
0.0
140
0.0
141
0.0
142
1.0
143
1.0
 70
  1712
 72
     0
 73
     0
 74
     0
  7

 75
     0
147
1.0
148
0.0
149
0.0
100
AcDbLayout
  1
Model
 70
     1
 71
     0
 10
0.0
 20
0.0
 11
1485.0
 21
1050.0
 12
0.0
 22
0.0
 32
0.0
 14
0.0
 24
0.0
 34
0.0
 15
1485.0
 25
1050.0
 35
0.0
146
0.0
 13
0.0
 23
0.0
 33
0.0
 16
1.0
 26
0.0
 36
0.0
 17
0.0
 27
1.0
 37
0.0
 76
     0
330
1F
  0
MLINESTYLE
  5
18
102
{ACAD_REACTORS
330
17
102
}
330
17
100
AcDbMlineStyle
  2
Standard
 70
     0
  3

 62
   256
 51
90.0
 52
90.0
 71
     2
 49
0.5
 62
   256
  6
BYLAYER
 49
-0.5
 62
   256
  6
BYLAYER
  0
ACDBPLACEHOLDER
  5
F
102
{ACAD_REACTORS
330
E
102
}
330
E
  0
DICTIONARYVAR
  5
E3
102
{ACAD_REACTORS
330
E2
102
}
330
E2
100
DictionaryVariables
280
     0
  1
1
  0
ENDSEC
  0
EOF
